  0
SECTION
  2
HEADER
  9
$ACADVER
  1
AC1009
  9
$INSBASE
 10
0
 20
0
 30
0
  9
$EXTMIN
 10
0
 20
0
  9
$EXTMAX
 10
420
 20
297
  9
$LIMMIN
 10
0
 20
0
  9
$LIMMAX
 10
420
 20
297
  9
$LTSCALE
 40
1
  0
ENDSEC
  0
SECTION
  2
TABLES
  0
TABLE
  2
LTYPE
 70
     9
  0
LTYPE
  2
CONTINUOUS
 70
    64
  3
実線
 72
    65
 73
     0
 40
0.0
  0
LTYPE
  2
DASHED1
 70
    64
  3
--  --  --  --  --  --  --  --  
 72
    65
 73
     2
 40
2.5
 49
1.25
 49
-1.25
  0
LTYPE
  2
DASHED2
 70
    64
  3
----    ----    ----    ----    
 72
    65
 73
     2
 40
5.0
 49
2.5
 49
-2.5
  0
LTYPE
  2
DASHED3
 70
    64
  3
------  ------  ------  ------  
 72
    65
 73
     2
 40
5.0
 49
3.75
 49
-1.25
  0
LTYPE
  2
CENTER1
 70
    64
  3
----- - ----- - ----- - ----- - 
 72
    65
 73
     4
 40
10.0
 49
6.25
 49
-1.25
 49
1.25
 49
-1.25
  0
LTYPE
  2
CENTER2
 70
    64
  3
----------  --  ----------  --  
 72
    65
 73
     4
 40
20.0
 49
12.5
 49
-2.5
 49
2.5
 49
-2.5
  0
LTYPE
  2
PHANTOM1
 70
    64
  3
--- - - --- - - --- - - --- - - 
 72
    65
 73
     6
 40
10.0
 49
3.25
 49
-1.25
 49
1.25
 49
-1.25
 49
1.25
 49
-1.25
  0
LTYPE
  2
PHANTOM2
 70
    64
  3
--------  -  -  --------  -  -  
 72
    65
 73
     6
 40
20.0
 49
10.0
 49
-2.5
 49
1.25
 49
-2.5
 49
1.25
 49
-2.5
  0
LTYPE
  2
DOT
 70
    64
  3
-   -   -   -   -   -   -   -   
 72
    65
 73
     2
 40
2.5
 49
0.625
 49
-1.875
  0
LTYPE
  2
DUMMY
 70
    64
  3
ダミー
 72
    65
 73
     0
 40
0.0
  0
LTYPE
  2
RAND1
 70
    64
  3
ランダム線1
 72
    65
 73
     4
 40
10.0
 49
1.0
 49
-2.0
 49
3.0
 49
-4.0
  0
LTYPE
  2
RAND2
 70
    64
  3
ランダム線2
 72
    65
 73
     4
 40
14.0
 49
2.0
 49
-3.0
 49
4.0
 49
-5.0
  0
LTYPE
  2
RAND3
 70
    64
  3
ランダム線3
 72
    65
 73
     4
 40
18.0
 49
3.0
 49
-4.0
 49
5.0
 49
-6.0
  0
LTYPE
  2
RAND4
 70
    64
  3
ランダム線4
 72
    65
 73
     4
 40
22.0
 49
4.0
 49
-5.0
 49
6.0
 49
-7.0
  0
LTYPE
  2
RAND5
 70
    64
  3
ランダム線5
 72
    65
 73
     4
 40
26.0
 49
5.0
 49
-6.0
 49
7.0
 49
-8.0
  0
LTYPE
  2
LONG1
 70
    64
  3
----------  --  ----------  --  
 72
    65
 73
     4
 40
40.0
 49
32.5
 49
-2.5
 49
2.5
 49
-2.5
  0
LTYPE
  2
LONG2
 70
    64
  3
--------  -  -  --------  -  -  
 72
    65
 73
     6
 40
40.0
 49
30.0
 49
-2.5
 49
1.25
 49
-2.5
 49
1.25
 49
-2.5
  0
LTYPE
  2
LONG3
 70
    64
  3
+++++++++++++++..+++++++++++++++
 72
    65
 73
     2
 40
40.0
 49
37.5
 49
-2.5
  0
LTYPE
  2
LONG4
 70
    64
  3
+++++++++++++++..+++++++++++++++
 72
    65
 73
     2
 40
80.0
 49
75.0
 49
-5.0
  0
LTYPE
  2
LONG5
 70
    64
  3
----------  --  ----------  --  
 72
    65
 73
     4
 40
60.0
 49
37.5
 49
-7.5
 49
7.5
 49
-7.5
  0
LTYPE
  2
dashed
 70
   64
  3
-------   -------------   ------
 72
   65
 73
    2
 40
7.5
 49
6
 49
-1.5
  0
LTYPE
  2
dashed_spaced
 70
   64
  3
----        --------        ----
 72
   65
 73
    2
 40
12
 49
6
 49
-6
  0
LTYPE
  2
long_dashed_dotted
 70
   64
  3
------------- --- --------------
 72
   65
 73
    4
 40
15.25
 49
12
 49
-1.5
 49
0.25
 49
-1.5
  0
LTYPE
  2
long_dashed_double-dotted
 70
   64
  3
----------- --- --- ------------
 72
   65
 73
    6
 40
17
 49
12
 49
-1.5
 49
0.25
 49
-1.5
 49
0.25
 49
-1.5
  0
LTYPE
  2
long_dashed_triplicate-dotted
 70
   64
  3
--------- --- --- --- ----------
 72
   65
 73
    8
 40
18.75
 49
12
 49
-1.5
 49
0.25
 49
-1.5
 49
0.25
 49
-1.5
 49
0.25
 49
-1.5
  0
LTYPE
  2
dotted
 70
   64
  3
   -       -       -       -    
 72
   65
 73
    2
 40
1.75
 49
0.25
 49
-1.5
  0
LTYPE
  2
chain
 70
   64
  3
-------------- -- --------------
 72
   65
 73
    4
 40
18.5
 49
12
 49
-1.5
 49
3.5
 49
-1.5
  0
LTYPE
  2
chain_double_dash
 70
   64
  3
------------ -- -- -------------
 72
   65
 73
    6
 40
23.5
 49
12
 49
-1.5
 49
3.5
 49
-1.5
 49
3.5
 49
-1.5
  0
LTYPE
  2
dashed_dotted
 70
   64
  3
-----------     -     ----------
 72
   65
 73
    4
 40
9.25
 49
6
 49
-1.5
 49
0.25
 49
-1.5
  0
LTYPE
  2
double-dashed_dotted
 70
   64
  3
------   -----------   -   -----
 72
   65
 73
    6
 40
16.75
 49
6
 49
-1.5
 49
6
 49
-1.5
 49
0.25
 49
-1.5
  0
LTYPE
  2
dashed_double-dotted
 70
   64
  3
---------    -    -    ---------
 72
   65
 73
    6
 40
11
 49
6
 49
-1.5
 49
0.25
 49
-1.5
 49
0.25
 49
-1.5
  0
LTYPE
  2
double-dashed_double-dotted
 70
   64
  3
-----   ---------   -   -   ----
 72
   65
 73
    8
 40
18.5
 49
6
 49
-1.5
 49
6
 49
-1.5
 49
0.25
 49
-1.5
 49
0.25
 49
-1.5
  0
LTYPE
  2
dashed_triplicate-dotted
 70
   64
  3
-------    -    -    -    ------
 72
   65
 73
    8
 40
12.75
 49
6
 49
-1.5
 49
0.25
 49
-1.5
 49
0.25
 49
-1.5
 49
0.25
 49
-1.5
  0
LTYPE
  2
double-dashed_triplicate-dotted
 70
   64
  3
-----  ---------  -  -  -  -----
 72
   65
 73
   10
 40
20.25
 49
6
 49
-1.5
 49
6
 49
-1.5
 49
0.25
 49
-1.5
 49
0.25
 49
-1.5
 49
0.25
 49
-1.5
  0
LTYPE
  2
undefined
 70
   64
  3
--------------------------------
 72
   65
 73
    0
 40
0
  0
LTYPE
  2
HIDDEN
 70
   64
  3
------     -----------     -----
 72
   65
 73
    2
 40
12.600000000000001
 49
8.4000000000000004
 49
-4.2000000000000002
  0
LTYPE
  2
DOT_18
 70
   64
  3
------    ------------    ------
 72
   65
 73
    2
 40
8
 49
6
 49
-2
  0
LTYPE
  2
CENTER
 70
   64
  3
---------      --      ---------
 72
   65
 73
    4
 40
50.5
 49
30
 49
-9
 49
2.5
 49
-9
  0
LTYPE
  2
PHANTOM
 70
   64
  3
---------     -   -     --------
 72
   65
 73
    6
 40
58
 49
30
 49
-9
 49
2.5
 49
-5
 49
2.5
 49
-9
  0
LTYPE
  2
ACAD_ISO06W100
 70
   64
  3
---------   -   -   -   --------
 72
   65
 73
    8
 40
37.5
 49
24
 49
-3
 49
0.5
 49
-3
 49
0.5
 49
-3
 49
0.5
 49
-3
  0
LTYPE
  2
ACAD_ISO14W100
 70
   64
  3
-------    -    -    -    ------
 72
   65
 73
    8
 40
25.5
 49
12
 49
-3
 49
0.5
 49
-3
 49
0.5
 49
-3
 49
0.5
 49
-3
  0
ENDTAB
  0
TABLE
  2
STYLE
  5
3
100
AcDbSymbolTable
 70
     1
  0
STYLE
  5
10
100
AcDbSymbolTableRecord
100
AcDbTextStyleTableRecord
  2
STANDARD
 70
     0
 40
0.0
 41
1.0
 50
0.0
 71
     0
 42
0.2
  3
txt
  4
bigfont.shx
  0
STYLE
  5
26
100
AcDbSymbolTableRecord
100
AcDbTextStyleTableRecord
  2
TATEGAKI
 70
    68
 40
0.0
 41
1.0
 50
0.0
 71
     0
 42
1.0
  3
txt
  4
bigfont.shx
  0
ENDTAB
  0
TABLE
  2
LAYER
 70
    3
  0
LAYER
  2
_0-0_0
 70
   64
 62
    7
  6
CONTINUOUS
  0
LAYER
  2
_1-6_1031
 70
   64
 62
    7
  6
CONTINUOUS
  0
LAYER
  2
ADD_LINE
 70
   64
 62
    7
  6
CONTINUOUS
  0
ENDTAB
  0
ENDSEC
  0
SECTION
  2
BLOCKS
  0
BLOCK
  2
-000-_G0
 70
   64
 10
0
 20
0
 30
0
  0
ENDBLK
  0
BLOCK
  2
-006-_G7
 70
   64
 10
0
 20
0
 30
0
  0
LINE
  8
_1-6_1031
  6
CONTINUOUS
 62
    7
 10
182.803844
 20
178.00000299999999
 11
182
 21
175
  0
LINE
  8
_1-6_1031
  6
CONTINUOUS
 62
    7
 10
182
 20
175
 11
181.196156
 21
178.00000299999999
  0
LINE
  8
_1-6_1031
  6
CONTINUOUS
 62
    7
 10
182
 20
175
 11
182
 21
178.00000299999999
  0
ENDBLK
  0
BLOCK
  2
-007-_G8
 70
   64
 10
0
 20
0
 30
0
  0
LINE
  8
_1-6_1031
  6
CONTINUOUS
 62
    7
 10
181.196156
 20
211.99999700000001
 11
182
 21
215
  0
LINE
  8
_1-6_1031
  6
CONTINUOUS
 62
    7
 10
182
 20
215
 11
182.803844
 21
211.99999700000001
  0
LINE
  8
_1-6_1031
  6
CONTINUOUS
 62
    7
 10
182
 20
215
 11
182
 21
211.99999700000001
  0
ENDBLK
  0
BLOCK
  2
-009-_G10
 70
   64
 10
0
 20
0
 30
0
  0
LINE
  8
_1-6_1031
  6
CONTINUOUS
 62
    7
 10
182.303844
 20
133.00000299999999
 11
181.5
 21
130
  0
LINE
  8
_1-6_1031
  6
CONTINUOUS
 62
    7
 10
181.5
 20
130
 11
180.696156
 21
133.00000299999999
  0
LINE
  8
_1-6_1031
  6
CONTINUOUS
 62
    7
 10
181.5
 20
130
 11
181.5
 21
133.00000299999999
  0
ENDBLK
  0
BLOCK
  2
-010-_G11
 70
   64
 10
0
 20
0
 30
0
  0
LINE
  8
_1-6_1031
  6
CONTINUOUS
 62
    7
 10
180.696156
 20
148.099997
 11
181.5
 21
151.09999999999999
  0
LINE
  8
_1-6_1031
  6
CONTINUOUS
 62
    7
 10
181.5
 20
151.09999999999999
 11
182.303844
 21
148.099997
  0
LINE
  8
_1-6_1031
  6
CONTINUOUS
 62
    7
 10
181.5
 20
151.09999999999999
 11
181.5
 21
148.099997
  0
ENDBLK
  0
BLOCK
  2
-012-_G13
 70
   64
 10
0
 20
0
 30
0
  0
LINE
  8
_1-6_1031
  6
CONTINUOUS
 62
    7
 10
94.500003000000007
 20
166.29994099999999
 11
91.5
 21
167.10378499999999
  0
LINE
  8
_1-6_1031
  6
CONTINUOUS
 62
    7
 10
91.5
 20
167.10378499999999
 11
94.500003000000007
 21
167.90762899999999
  0
LINE
  8
_1-6_1031
  6
CONTINUOUS
 62
    7
 10
91.5
 20
167.10378499999999
 11
94.500003000000007
 21
167.10378499999999
  0
ENDBLK
  0
BLOCK
  2
-013-_G14
 70
   64
 10
0
 20
0
 30
0
  0
LINE
  8
_1-6_1031
  6
CONTINUOUS
 62
    7
 10
169.49999700000001
 20
167.90762899999999
 11
172.5
 21
167.10378499999999
  0
LINE
  8
_1-6_1031
  6
CONTINUOUS
 62
    7
 10
172.5
 20
167.10378499999999
 11
169.49999700000001
 21
166.29994099999999
  0
LINE
  8
_1-6_1031
  6
CONTINUOUS
 62
    7
 10
172.5
 20
167.10378499999999
 11
169.49999700000001
 21
167.10378499999999
  0
ENDBLK
  0
ENDSEC
  0
SECTION
  2
ENTITIES
  0
INSERT
  2
-000-_G0
  8
_0-0_0
 10
-87
 20
-61.5
 41
1
 42
1
 50
0
  0
LINE
  8
_0-0_0
  6
CONTINUOUS
 62
    7
 10
110.01496413946541
 20
21.833673987234249
 11
410
 21
21.833673987234249
  0
LINE
  8
_0-0_0
  6
CONTINUOUS
 62
    7
 10
110.01496413946541
 20
28.500340653900906
 11
410
 21
28.500340653900906
  0
LINE
  8
_0-0_0
  6
CONTINUOUS
 62
    7
 10
110.01496413946541
 20
15.167007320567564
 11
410
 21
15.167007320567564
  0
LINE
  8
_0-0_0
  6
CONTINUOUS
 62
    7
 10
110.01496413946541
 20
35.167007320567592
 11
110.01496413946541
 21
8.5
  0
TEXT
  8
_0-0_0
 62
    7
 10
43.418060924037832
 20
284.78418105701383
 40
3.2000000000000002
 41
1.181
 50
0
  1
Ａ
  0
TEXT
  8
_0-0_0
 62
    7
 10
93.418060924037832
 20
284.78418105701383
 40
3.2000000000000002
 41
1.181
 50
0
  1
Ｂ
  0
TEXT
  8
_0-0_0
 62
    7
 10
143.41806092403777
 20
284.78418105701383
 40
3.2000000000000002
 41
1.181
 50
0
  1
Ｃ
  0
TEXT
  8
_0-0_0
 62
    7
 10
193.41806092403777
 20
284.78418105701383
 40
3.2000000000000002
 41
1.181
 50
0
  1
Ｄ
  0
TEXT
  8
_0-0_0
 62
    7
 10
243.41806092403766
 20
284.78418105701383
 40
3.2000000000000002
 41
1.181
 50
0
  1
Ｅ
  0
TEXT
  8
_0-0_0
 62
    7
 10
293.41806092403772
 20
284.78418105701383
 40
3.2000000000000002
 41
1.181
 50
0
  1
Ｆ
  0
TEXT
  8
_0-0_0
 62
    7
 10
343.41806092403772
 20
284.78418105701383
 40
3.2000000000000002
 41
1.181
 50
0
  1
Ｇ
  0
TEXT
  8
_0-0_0
 62
    7
 10
393.41806092403772
 20
284.78418105701383
 40
3.2000000000000002
 41
1.181
 50
0
  1
Ｈ
  0
LINE
  8
_0-0_0
  6
CONTINUOUS
 62
    7
 10
70.018060924037854
 20
283.5
 11
70.018060924037854
 21
285.5
  0
LINE
  8
_0-0_0
  6
CONTINUOUS
 62
    7
 10
120.01806092403785
 20
283.5
 11
120.01806092403785
 21
285.5
  0
LINE
  8
_0-0_0
  6
CONTINUOUS
 62
    7
 10
170.01806092403785
 20
283.5
 11
170.01806092403785
 21
285.5
  0
LINE
  8
_0-0_0
  6
CONTINUOUS
 62
    7
 10
220.01806092403785
 20
283.5
 11
220.01806092403785
 21
285.5
  0
LINE
  8
_0-0_0
  6
CONTINUOUS
 62
    7
 10
270.01806092403785
 20
283.5
 11
270.01806092403785
 21
285.5
  0
LINE
  8
_0-0_0
  6
CONTINUOUS
 62
    7
 10
320.01806092403785
 20
283.5
 11
320.01806092403785
 21
285.5
  0
LINE
  8
_0-0_0
  6
CONTINUOUS
 62
    7
 10
370.01806092403785
 20
283.5
 11
370.01806092403785
 21
285.5
  0
LINE
  8
_0-0_0
  6
CONTINUOUS
 62
    7
 10
410
 20
8.5
 11
410
 21
283.5
  0
LINE
  8
_0-0_0
  6
CONTINUOUS
 62
    7
 10
18
 20
233.38418105701379
 11
20
 21
233.38418105701379
  0
LINE
  8
_0-0_0
  6
CONTINUOUS
 62
    7
 10
18
 20
183.38418105701379
 11
20
 21
183.38418105701379
  0
LINE
  8
_0-0_0
  6
CONTINUOUS
 62
    7
 10
18
 20
133.38418105701379
 11
20
 21
133.38418105701379
  0
LINE
  8
_0-0_0
  6
CONTINUOUS
 62
    7
 10
18
 20
83.384181057013791
 11
20
 21
83.384181057013791
  0
TEXT
  8
_0-0_0
 62
    7
 10
15.399999999999977
 20
256.78418105701383
 40
3.2000000000000002
 41
1.181
 50
0
  1
１
  0
TEXT
  8
_0-0_0
 62
    7
 10
15.399999999999977
 20
206.7841810570138
 40
3.2000000000000002
 41
1.181
 50
0
  1
２
  0
TEXT
  8
_0-0_0
 62
    7
 10
15.399999999999977
 20
156.7841810570138
 40
3.2000000000000002
 41
1.181
 50
0
  1
３
  0
TEXT
  8
_0-0_0
 62
    7
 10
15.399999999999977
 20
106.7841810570138
 40
3.2000000000000002
 41
1.181
 50
0
  1
４
  0
TEXT
  8
_0-0_0
 62
    7
 10
15.399999999999977
 20
56.784181057013797
 40
3.2000000000000002
 41
1.181
 50
0
  1
５
  0
LINE
  8
_0-0_0
  6
CONTINUOUS
 62
    7
 10
20
 20
8.5
 11
410
 21
8.5
  0
LINE
  8
_0-0_0
  6
CONTINUOUS
 62
    7
 10
20
 20
8.5
 11
20
 21
283.5
  0
LINE
  8
_0-0_0
  6
CONTINUOUS
 62
    7
 10
20
 20
283.5
 11
410
 21
283.5
  0
LINE
  8
_0-0_0
  6
CONTINUOUS
 62
    7
 10
235.01806092403785
 20
35.167007320567592
 11
235.01806092403785
 21
8.5
  0
LINE
  8
_0-0_0
  6
CONTINUOUS
 62
    7
 10
270.01806092403785
 20
35.167007320567592
 11
270.01806092403785
 21
8.5
  0
LINE
  8
_0-0_0
  6
CONTINUOUS
 62
    7
 10
285
 20
35.167007320567592
 11
285
 21
8.5
  0
LINE
  8
_0-0_0
  6
CONTINUOUS
 62
    7
 10
310
 20
35.167007320567592
 11
310
 21
8.5
  0
LINE
  8
_0-0_0
  6
CONTINUOUS
 62
    7
 10
255
 20
35.167007320567592
 11
255
 21
8.5
  0
LINE
  8
_0-0_0
  6
CONTINUOUS
 62
    7
 10
120
 20
35.167007320567592
 11
120
 21
8.5
  0
LINE
  8
_0-0_0
  6
CONTINUOUS
 62
    7
 10
220
 20
35.167007320567592
 11
220
 21
8.5
  0
LINE
  8
_0-0_0
  6
CONTINUOUS
 62
    7
 10
20
 20
35.167007320567592
 11
410
 21
35.167007320567592
  0
LINE
  8
_0-0_0
  6
CONTINUOUS
 62
    7
 10
325
 20
15.166666666666572
 11
325
 21
35.167007320567592
  0
TEXT
  8
_0-0_0
 62
    7
 10
312.5
 20
30.333333333333343
 40
3
 41
1
 50
0
  1
納入先
  0
TEXT
  8
_0-0_0
 62
    7
 10
310.75
 20
23.666666666666686
 40
3
 41
1
 50
0
  1
図面番号
  0
TEXT
  8
_0-0_0
 62
    7
 10
310.75
 20
17
 40
3
 41
1
 50
0
  1
図面名称
  0
TEXT
  8
_0-0_0
 62
    7
 10
286.75
 20
30.333333333333343
 40
3
 41
1
 50
0
  1
尺度
  0
TEXT
  8
_0-0_0
 62
    7
 10
275.99999999999977
 20
30.333333333333343
 40
3
 41
1
 50
0
  1
１
  0
TEXT
  8
_0-0_0
 62
    7
 10
257.375
 20
30.333333333333343
 40
3
 41
1
 50
0
  1
ｼｰﾄNo.
  0
TEXT
  8
_0-0_0
 62
    7
 10
259.25
 20
23.666666666666686
 40
3
 41
1
 50
0
  1
承認
  0
TEXT
  8
_0-0_0
 62
    7
 10
259.25
 20
17
 40
3
 41
1
 50
0
  1
審査
  0
TEXT
  8
_0-0_0
 62
    7
 10
259.25
 20
10.333333333333314
 40
3
 41
1
 50
0
  1
製図
  0
TEXT
  8
_0-0_0
 62
    7
 10
238.25000000000006
 20
10.333333333333371
 40
3
 41
1
 50
0
  1
改定日付
  0
TEXT
  8
_0-0_0
 62
    7
 10
222.50000000000006
 20
10.333333333333314
 40
3
 41
1
 50
0
  1
改定者
  0
TEXT
  8
_0-0_0
 62
    7
 10
163.25
 20
10.333333333333371
 40
3
 41
1
 50
0
  1
改定内容
  0
TEXT
  8
_0-0_0
 62
    7
 10
110.75
 20
10.333333333333371
 40
3
 41
1
 50
0
  1
Ｎｏ.
  0
TEXT
  8
_0-0_0
 62
    7
 10
113.5
 20
17
 40
3
 41
1
 50
0
  1
１
  0
TEXT
  8
_0-0_0
 62
    7
 10
113.5
 20
23.666666666666686
 40
3
 41
1
 50
0
  1
２
  0
TEXT
  8
_0-0_0
 62
    7
 10
113.5
 20
30.333333333333343
 40
3
 41
1
 50
0
  1
３
  0
LINE
  8
_0-0_0
  6
CONTINUOUS
 62
    3
 10
115.00000000000068
 20
34.062168554635718
 11
112.50000000000068
 21
29.732040838570697
  0
LINE
  8
_0-0_0
  6
CONTINUOUS
 62
    3
 10
112.50000000000068
 20
29.732040838570697
 11
117.49999999999864
 21
29.732040838570697
  0
LINE
  8
_0-0_0
  6
CONTINUOUS
 62
    3
 10
117.49999999999864
 20
29.732040838570697
 11
115.00000000000068
 21
34.062168554635718
  0
LINE
  8
_0-0_0
  6
CONTINUOUS
 62
    3
 10
115.00000000000068
 20
27.5621723693327
 11
112.50000000000068
 21
23.232042745919728
  0
LINE
  8
_0-0_0
  6
CONTINUOUS
 62
    3
 10
112.50000000000068
 20
23.232042745919728
 11
117.49999999999864
 21
23.232042745919728
  0
LINE
  8
_0-0_0
  6
CONTINUOUS
 62
    3
 10
117.49999999999864
 20
23.232042745919728
 11
115.00000000000068
 21
27.5621723693327
  0
LINE
  8
_0-0_0
  6
CONTINUOUS
 62
    3
 10
115.00000000000068
 20
21.062170461983726
 11
112.50000000000068
 21
16.732042745919728
  0
LINE
  8
_0-0_0
  6
CONTINUOUS
 62
    3
 10
112.50000000000068
 20
16.732042745919728
 11
117.49999999999864
 21
16.732042745919728
  0
LINE
  8
_0-0_0
  6
CONTINUOUS
 62
    3
 10
117.49999999999864
 20
16.732042745919728
 11
115.00000000000068
 21
21.062170461983726
  0
TEXT
  8
_0-0_0
 62
    7
 10
300.7680609261979
 20
30.182305636745923
 40
3
 41
1
 50
0
  1
／
  0
TEXT
  8
_0-0_0
 62
    7
 10
295.01806092403785
 20
33.729032838784946
 40
2.5
 41
1
 50
0
  1
　
  0
TEXT
  8
_0-0_0
 62
    7
 10
295.01806092403785
 20
33.729032838784946
 40
2.5
 41
1
 50
0
  1
　
  0
TEXT
  8
_0-0_0
 62
    7
 10
304.95804564120488
 20
29.164408634822479
 40
3
 41
1
 50
0
  1
1
  0
TEXT
  8
_0-0_0
 62
    7
 10
349.5
 20
10.333333333333371
 40
3
 41
1
 50
0
  1
Ｇｅｏｔｓ
  0
TEXT
  8
_0-0_0
 62
    7
 10
299.24752461725507
 20
31.672804138452136
 40
3
 41
1
 50
0
  1
1
  0
TEXT
  8
_0-0_0
 62
    7
 10
330
 20
17
 40
3
 41
1
 50
0
  1
ひずみゲージアンプ　ＳＴＡ－０４Ｇ　ＳＴＡ－１２Ｇ
  0
LINE
  8
_1-6_1031
  6
CONTINUOUS
 62
    7
 10
241.03447414420936
 20
132.53854904318297
 11
241.03447414420936
 21
154.27854904318298
  0
LINE
  8
_1-6_1031
  6
CONTINUOUS
 62
    7
 10
161.03447414420936
 20
130.96854904318297
 11
242.03447414420936
 21
130.96854904318297
  0
LINE
  8
_1-6_1031
  6
CONTINUOUS
 62
    7
 10
242.03447414420936
 20
170.96854904318297
 11
161.03447414420936
 21
170.96854904318297
  0
LINE
  8
_1-6_1031
  6
CONTINUOUS
 62
    7
 10
175.23447414420934
 20
170.96854904318297
 11
175.23447414420934
 21
130.96854904318297
  0
LINE
  8
_1-6_1031
  6
CONTINUOUS
 62
    7
 10
227.83447414420937
 20
170.96854904318297
 11
227.83447414420937
 21
130.96854904318297
  0
LINE
  8
_1-6_1031
  6
CONTINUOUS
 62
    7
 10
161.03447414420936
 20
170.96854904318297
 11
161.03447414420936
 21
130.96854904318297
  0
LINE
  8
_1-6_1031
  6
CONTINUOUS
 62
    7
 10
242.03447414420936
 20
170.96854904318297
 11
242.03447414420936
 21
130.96854904318297
  0
CIRCLE
  8
_1-6_1031
  6
CONTINUOUS
 62
    7
 10
192.03447414420936
 20
136.96854904318297
 40
2
  0
CIRCLE
  8
_1-6_1031
  6
CONTINUOUS
 62
    7
 10
201.03447414420936
 20
136.96854904318297
 40
2
  0
LINE
  8
_1-6_1031
  6
CONTINUOUS
 62
    7
 10
215.86780714420937
 20
138.06195604318299
 11
215.86780714420937
 21
135.56195604318299
  0
LINE
  8
_1-6_1031
  6
CONTINUOUS
 62
    7
 10
215.86780714420937
 20
135.31708404318297
 11
215.36780714420937
 21
136.81708404318297
  0
LINE
  8
_1-6_1031
  6
CONTINUOUS
 62
    7
 10
215.86780714420937
 20
135.31708404318297
 11
216.36780714420937
 21
136.81708404318297
  0
LINE
  8
_1-6_1031
  6
CONTINUOUS
 62
    7
 10
192.03447414420936
 20
161.07111304318298
 11
212.03447414420936
 21
161.07111304318298
  0
LINE
  8
_1-6_1031
  6
CONTINUOUS
 62
    7
 10
212.03447414420936
 20
146.07111304318298
 11
192.03447414420936
 21
146.07111304318298
  0
LINE
  8
_1-6_1031
  6
CONTINUOUS
 62
    7
 10
192.03447414420936
 20
146.07111304318298
 11
192.03447414420936
 21
161.07111304318298
  0
LINE
  8
_1-6_1031
  6
CONTINUOUS
 62
    7
 10
212.03447414420936
 20
161.07111304318298
 11
212.03447414420936
 21
146.07111304318298
  0
LINE
  8
_1-6_1031
  6
CONTINUOUS
 62
    7
 10
192.03447414420936
 20
158.07111304318298
 11
212.03447414420936
 21
158.07111304318298
  0
LINE
  8
_1-6_1031
  6
CONTINUOUS
 62
    7
 10
192.03447414420936
 20
155.07111304318298
 11
212.03447414420936
 21
155.07111304318298
  0
LINE
  8
_1-6_1031
  6
CONTINUOUS
 62
    7
 10
192.03447414420936
 20
152.07111304318298
 11
212.03447414420936
 21
152.07111304318298
  0
LINE
  8
_1-6_1031
  6
CONTINUOUS
 62
    7
 10
192.03447414420936
 20
149.07111304318298
 11
212.03447414420936
 21
149.07111304318298
  0
LINE
  8
_1-6_1031
  6
CONTINUOUS
 62
    7
 10
197.03447414420936
 20
161.07111304318298
 11
197.03447414420936
 21
146.07111304318298
  0
LINE
  8
_1-6_1031
  6
CONTINUOUS
 62
    7
 10
202.03447414420936
 20
161.07111304318298
 11
202.03447414420936
 21
146.07111304318298
  0
LINE
  8
_1-6_1031
  6
CONTINUOUS
 62
    7
 10
185.53447414420936
 20
157.96854904318297
 11
185.53447414420936
 21
152.96854904318297
  0
LINE
  8
_1-6_1031
  6
CONTINUOUS
 62
    7
 10
185.53447414420936
 20
152.96854904318297
 11
183.53447414420936
 21
152.96854904318297
  0
LINE
  8
_1-6_1031
  6
CONTINUOUS
 62
    7
 10
185.53447414420936
 20
160.96854904318297
 11
185.53447414420936
 21
166.46854904318297
  0
LINE
  8
_1-6_1031
  6
CONTINUOUS
 62
    7
 10
185.53447414420936
 20
166.46854904318297
 11
183.53447414420936
 21
166.46854904318297
  0
LINE
  8
_1-6_1031
  6
CONTINUOUS
 62
    7
 10
183.53447414420936
 20
156.46854904318297
 11
186.53447414420936
 21
156.46854904318297
  0
LINE
  8
_1-6_1031
  6
CONTINUOUS
 62
    7
 10
186.53447414420936
 20
156.46854904318297
 11
186.53447414420936
 21
149.46854904318297
  0
LINE
  8
_1-6_1031
  6
CONTINUOUS
 62
    7
 10
186.53447414420936
 20
146.46854904318297
 11
186.53447414420936
 21
143.34854904318297
  0
LINE
  8
_1-6_1031
  6
CONTINUOUS
 62
    7
 10
186.53447414420936
 20
143.34854904318297
 11
183.53447414420936
 21
143.34854904318297
  0
LINE
  8
_1-6_1031
  6
CONTINUOUS
 62
    7
 10
218.03447414420936
 20
162.95854904318298
 11
226.03447414420936
 21
162.95854904318298
  0
LINE
  8
_1-6_1031
  6
CONTINUOUS
 62
    7
 10
218.03447414420936
 20
161.83854904318298
 11
226.03447414420936
 21
161.83854904318298
  0
LINE
  8
_1-6_1031
  6
CONTINUOUS
 62
    7
 10
218.03447414420936
 20
155.33854904318298
 11
226.03447414420936
 21
155.33854904318298
  0
LINE
  8
_1-6_1031
  6
CONTINUOUS
 62
    7
 10
226.03447414420936
 20
154.21854904318297
 11
218.03447414420936
 21
154.21854904318297
  0
LINE
  8
_1-6_1031
  6
CONTINUOUS
 62
    7
 10
218.03447414420936
 20
147.71854904318297
 11
226.03447414420936
 21
147.71854904318297
  0
LINE
  8
_1-6_1031
  6
CONTINUOUS
 62
    7
 10
218.03447414420936
 20
146.59854904318297
 11
226.03447414420936
 21
146.59854904318297
  0
LINE
  8
_1-6_1031
  6
CONTINUOUS
 62
    7
 10
226.03447414420936
 20
140.09854904318297
 11
218.03447414420936
 21
140.09854904318297
  0
LINE
  8
_1-6_1031
  6
CONTINUOUS
 62
    7
 10
226.03447414420936
 20
138.97854904318297
 11
218.03447414420936
 21
138.97854904318297
  0
LINE
  8
_1-6_1031
  6
CONTINUOUS
 62
    7
 10
218.03447414420936
 20
132.47854904318297
 11
226.03447414420936
 21
132.47854904318297
  0
LINE
  8
_1-6_1031
  6
CONTINUOUS
 62
    7
 10
218.03447414420936
 20
169.45854904318298
 11
226.03447414420936
 21
169.45854904318298
  0
LINE
  8
_1-6_1031
  6
CONTINUOUS
 62
    7
 10
176.78447414420936
 20
169.45854904318298
 11
183.28447414420936
 21
169.45854904318298
  0
LINE
  8
_1-6_1031
  6
CONTINUOUS
 62
    7
 10
176.78447414420936
 20
162.95854904318298
 11
183.28447414420936
 21
162.95854904318298
  0
LINE
  8
_1-6_1031
  6
CONTINUOUS
 62
    7
 10
176.78447414420936
 20
161.83854904318298
 11
183.28447414420936
 21
161.83854904318298
  0
LINE
  8
_1-6_1031
  6
CONTINUOUS
 62
    7
 10
176.78447414420936
 20
155.33854904318298
 11
183.28447414420936
 21
155.33854904318298
  0
LINE
  8
_1-6_1031
  6
CONTINUOUS
 62
    7
 10
176.78447414420936
 20
154.21854904318297
 11
183.28447414420936
 21
154.21854904318297
  0
LINE
  8
_1-6_1031
  6
CONTINUOUS
 62
    7
 10
176.78447414420936
 20
147.71854904318297
 11
183.28447414420936
 21
147.71854904318297
  0
LINE
  8
_1-6_1031
  6
CONTINUOUS
 62
    7
 10
176.78447414420936
 20
146.59854904318297
 11
183.28447414420936
 21
146.59854904318297
  0
LINE
  8
_1-6_1031
  6
CONTINUOUS
 62
    7
 10
176.78447414420936
 20
140.09854904318297
 11
183.28447414420936
 21
140.09854904318297
  0
LINE
  8
_1-6_1031
  6
CONTINUOUS
 62
    7
 10
176.78447414420936
 20
138.97854904318297
 11
183.28447414420936
 21
138.97854904318297
  0
LINE
  8
_1-6_1031
  6
CONTINUOUS
 62
    7
 10
176.78447414420936
 20
132.47854904318297
 11
183.28447414420936
 21
132.47854904318297
  0
LINE
  8
_1-6_1031
  6
CONTINUOUS
 62
    7
 10
183.28447414420936
 20
169.45854904318298
 11
183.28447414420936
 21
162.95854904318298
  0
LINE
  8
_1-6_1031
  6
CONTINUOUS
 62
    7
 10
183.28447414420936
 20
161.83854904318298
 11
183.28447414420936
 21
155.33854904318298
  0
LINE
  8
_1-6_1031
  6
CONTINUOUS
 62
    7
 10
183.28447414420936
 20
154.21854904318297
 11
183.28447414420936
 21
147.71854904318297
  0
LINE
  8
_1-6_1031
  6
CONTINUOUS
 62
    7
 10
183.28447414420936
 20
146.59854904318297
 11
183.28447414420936
 21
140.09854904318297
  0
LINE
  8
_1-6_1031
  6
CONTINUOUS
 62
    7
 10
183.28447414420936
 20
138.97854904318297
 11
183.28447414420936
 21
132.47854904318297
  0
LINE
  8
_1-6_1031
  6
CONTINUOUS
 62
    7
 10
176.78447414420936
 20
169.45854904318298
 11
176.78447414420936
 21
162.95854904318298
  0
LINE
  8
_1-6_1031
  6
CONTINUOUS
 62
    7
 10
176.78447414420936
 20
161.83854904318298
 11
176.78447414420936
 21
155.33854904318298
  0
LINE
  8
_1-6_1031
  6
CONTINUOUS
 62
    7
 10
176.78447414420936
 20
154.21854904318297
 11
176.78447414420936
 21
147.71854904318297
  0
LINE
  8
_1-6_1031
  6
CONTINUOUS
 62
    7
 10
176.78447414420936
 20
146.59854904318297
 11
176.78447414420936
 21
140.09854904318297
  0
LINE
  8
_1-6_1031
  6
CONTINUOUS
 62
    7
 10
176.78447414420936
 20
138.97854904318297
 11
176.78447414420936
 21
132.47854904318297
  0
LINE
  8
_1-6_1031
  6
CONTINUOUS
 62
    7
 10
218.03447414420936
 20
169.45854904318298
 11
218.03447414420936
 21
162.95854904318298
  0
LINE
  8
_1-6_1031
  6
CONTINUOUS
 62
    7
 10
218.03447414420936
 20
161.83854904318298
 11
218.03447414420936
 21
155.33854904318298
  0
LINE
  8
_1-6_1031
  6
CONTINUOUS
 62
    7
 10
218.03447414420936
 20
154.21854904318297
 11
218.03447414420936
 21
147.71854904318297
  0
LINE
  8
_1-6_1031
  6
CONTINUOUS
 62
    7
 10
218.03447414420936
 20
146.59854904318297
 11
218.03447414420936
 21
140.09854904318297
  0
LINE
  8
_1-6_1031
  6
CONTINUOUS
 62
    7
 10
218.03447414420936
 20
138.97854904318297
 11
218.03447414420936
 21
132.47854904318297
  0
LINE
  8
_1-6_1031
  6
CONTINUOUS
 62
    7
 10
226.03447414420936
 20
169.45854904318298
 11
226.03447414420936
 21
162.95854904318298
  0
LINE
  8
_1-6_1031
  6
CONTINUOUS
 62
    7
 10
226.03447414420936
 20
161.83854904318298
 11
226.03447414420936
 21
155.33854904318298
  0
LINE
  8
_1-6_1031
  6
CONTINUOUS
 62
    7
 10
226.03447414420936
 20
154.21854904318297
 11
226.03447414420936
 21
147.71854904318297
  0
LINE
  8
_1-6_1031
  6
CONTINUOUS
 62
    7
 10
226.03447414420936
 20
146.59854904318297
 11
226.03447414420936
 21
140.09854904318297
  0
LINE
  8
_1-6_1031
  6
CONTINUOUS
 62
    7
 10
226.03447414420936
 20
138.97854904318297
 11
226.03447414420936
 21
132.47854904318297
  0
LINE
  8
_1-6_1031
  6
CONTINUOUS
 62
    7
 10
188.03447414420936
 20
132.51854904318299
 11
196.03447414420936
 21
132.51854904318299
  0
LINE
  8
_1-6_1031
  6
CONTINUOUS
 62
    7
 10
188.03447414420936
 20
143.76449304318297
 11
188.03447414420936
 21
132.51854904318299
  0
LINE
  8
_1-6_1031
  6
CONTINUOUS
 62
    7
 10
196.03447414420936
 20
132.51854904318299
 11
196.03447414420936
 21
143.76449304318297
  0
LINE
  8
_1-6_1031
  6
CONTINUOUS
 62
    7
 10
197.03447414420936
 20
132.51854904318299
 11
205.03447414420936
 21
132.51854904318299
  0
LINE
  8
_1-6_1031
  6
CONTINUOUS
 62
    7
 10
197.03447414420936
 20
143.76449304318297
 11
197.03447414420936
 21
132.51854904318299
  0
LINE
  8
_1-6_1031
  6
CONTINUOUS
 62
    7
 10
205.03447414420936
 20
132.51854904318299
 11
205.03447414420936
 21
143.76449304318297
  0
LINE
  8
_1-6_1031
  6
CONTINUOUS
 62
    7
 10
206.03447414420936
 20
139.38887904318298
 11
214.03447414420936
 21
139.38887904318298
  0
LINE
  8
_1-6_1031
  6
CONTINUOUS
 62
    7
 10
206.03447414420936
 20
143.71296704318297
 11
206.03447414420936
 21
139.38887904318298
  0
LINE
  8
_1-6_1031
  6
CONTINUOUS
 62
    7
 10
214.03447414420936
 20
139.38887904318298
 11
214.03447414420936
 21
143.71296704318297
  0
LINE
  8
_1-6_1031
  6
CONTINUOUS
 62
    7
 10
206.03447414420936
 20
132.51854904318299
 11
209.53447414420936
 21
132.51854904318299
  0
LINE
  8
_1-6_1031
  6
CONTINUOUS
 62
    7
 10
209.53447414420936
 20
138.51854904318299
 11
206.03447414420936
 21
138.51854904318299
  0
LINE
  8
_1-6_1031
  6
CONTINUOUS
 62
    7
 10
206.03447414420936
 20
138.51854904318299
 11
206.03447414420936
 21
132.51854904318299
  0
LINE
  8
_1-6_1031
  6
CONTINUOUS
 62
    7
 10
209.53447414420936
 20
132.51854904318299
 11
209.53447414420936
 21
138.51854904318299
  0
LINE
  8
_1-6_1031
  6
CONTINUOUS
 62
    7
 10
210.53447414420936
 20
132.51854904318299
 11
214.03447414420936
 21
132.51854904318299
  0
LINE
  8
_1-6_1031
  6
CONTINUOUS
 62
    7
 10
214.03447414420936
 20
138.51854904318299
 11
210.53447414420936
 21
138.51854904318299
  0
LINE
  8
_1-6_1031
  6
CONTINUOUS
 62
    7
 10
210.53447414420936
 20
138.51854904318299
 11
210.53447414420936
 21
132.51854904318299
  0
LINE
  8
_1-6_1031
  6
CONTINUOUS
 62
    7
 10
214.03447414420936
 20
132.51854904318299
 11
214.03447414420936
 21
138.51854904318299
  0
LINE
  8
_1-6_1031
  6
CONTINUOUS
 62
    7
 10
196.03447414420936
 20
143.76449304318297
 11
188.03447414420936
 21
143.76449304318297
  0
LINE
  8
_1-6_1031
  6
CONTINUOUS
 62
    7
 10
205.03447414420936
 20
143.76449304318297
 11
197.03447414420936
 21
143.76449304318297
  0
LINE
  8
_1-6_1031
  6
CONTINUOUS
 62
    7
 10
214.03447414420936
 20
143.71296704318297
 11
206.03447414420936
 21
143.71296704318297
  0
LINE
  8
_1-6_1031
  6
CONTINUOUS
 62
    7
 10
162.53447414420936
 20
92.568549043182969
 11
240.53447414420936
 21
92.568549043182969
  0
LINE
  8
_1-6_1031
  6
CONTINUOUS
 62
    7
 10
161.03447414420936
 20
85.968549043182975
 11
242.03447414420936
 21
85.968549043182975
  0
LINE
  8
_1-6_1031
  6
CONTINUOUS
 62
    7
 10
242.03447414420936
 20
85.968549043182975
 11
242.03447414420936
 21
92.468549043182975
  0
LINE
  8
_1-6_1031
  6
CONTINUOUS
 62
    7
 10
161.03447414420936
 20
85.968549043182975
 11
161.03447414420936
 21
92.568549043182969
  0
LINE
  8
_1-6_1031
  6
CONTINUOUS
 62
    7
 10
175.23447414420934
 20
102.56854904318297
 11
227.83447414420937
 21
102.56854904318297
  0
LINE
  8
_1-6_1031
  6
CONTINUOUS
 62
    7
 10
175.23447414420934
 20
102.56854904318297
 11
175.23447414420934
 21
92.568549043182969
  0
LINE
  8
_1-6_1031
  6
CONTINUOUS
 62
    7
 10
227.83447414420937
 20
102.56854904318297
 11
227.83447414420937
 21
92.568549043182969
  0
ARC
  8
_1-6_1031
  6
CONTINUOUS
 62
    7
 10
174.30333514420937
 20
106.56854904318297
 40
0.5
 50
2.2025980000000001
 51
90
  0
LINE
  8
_1-6_1031
  6
CONTINUOUS
 62
    7
 10
212.53447414420936
 20
97.568549043182969
 11
207.53447414420936
 21
97.568549043182969
  0
LINE
  8
_1-6_1031
  6
CONTINUOUS
 62
    7
 10
207.53447414420936
 20
97.568549043182969
 11
207.53447414420936
 21
92.568549043182969
  0
LINE
  8
_1-6_1031
  6
CONTINUOUS
 62
    7
 10
212.53447414420936
 20
92.568549043182969
 11
212.53447414420936
 21
97.568549043182969
  0
LINE
  8
_1-6_1031
  6
CONTINUOUS
 62
    7
 10
208.36447414420937
 20
95.568549043182969
 11
209.16447414420935
 21
95.568549043182969
  0
LINE
  8
_1-6_1031
  6
CONTINUOUS
 62
    7
 10
209.16447414420935
 20
96.968549043182975
 11
208.36447414420937
 21
96.968549043182975
  0
LINE
  8
_1-6_1031
  6
CONTINUOUS
 62
    7
 10
208.36447414420937
 20
97.568549043182969
 11
208.36447414420937
 21
95.568549043182969
  0
LINE
  8
_1-6_1031
  6
CONTINUOUS
 62
    7
 10
209.16447414420935
 20
95.568549043182969
 11
209.16447414420935
 21
97.568549043182969
  0
LINE
  8
_1-6_1031
  6
CONTINUOUS
 62
    7
 10
210.90447414420936
 20
95.568549043182969
 11
211.70447414420934
 21
95.568549043182969
  0
LINE
  8
_1-6_1031
  6
CONTINUOUS
 62
    7
 10
211.70447414420934
 20
96.968549043182975
 11
210.90447414420936
 21
96.968549043182975
  0
LINE
  8
_1-6_1031
  6
CONTINUOUS
 62
    7
 10
210.90447414420936
 20
97.568549043182969
 11
210.90447414420936
 21
95.568549043182969
  0
LINE
  8
_1-6_1031
  6
CONTINUOUS
 62
    7
 10
211.70447414420934
 20
95.568549043182969
 11
211.70447414420934
 21
97.568549043182969
  0
LINE
  8
_1-6_1031
  6
CONTINUOUS
 62
    7
 10
208.36447414420937
 20
96.968549043182975
 11
209.16447414420935
 21
96.968549043182975
  0
LINE
  8
_1-6_1031
  6
CONTINUOUS
 62
    7
 10
210.90447414420936
 20
96.968549043182975
 11
211.70447414420934
 21
96.968549043182975
  0
LINE
  8
_1-6_1031
  6
CONTINUOUS
 62
    7
 10
209.16447414420935
 20
96.368549043182981
 11
208.36447414420937
 21
96.368549043182981
  0
LINE
  8
_1-6_1031
  6
CONTINUOUS
 62
    7
 10
211.70447414420934
 20
96.368549043182981
 11
210.90447414420936
 21
96.368549043182981
  0
LINE
  8
_1-6_1031
  6
CONTINUOUS
 62
    7
 10
208.36447414420937
 20
96.368549043182981
 11
209.16447414420935
 21
96.368549043182981
  0
LINE
  8
_1-6_1031
  6
CONTINUOUS
 62
    7
 10
210.90447414420936
 20
96.368549043182981
 11
211.70447414420934
 21
96.368549043182981
  0
LINE
  8
_1-6_1031
  6
CONTINUOUS
 62
    7
 10
206.53447414420936
 20
99.068549043182969
 11
206.53447414420936
 21
92.568549043182969
  0
LINE
  8
_1-6_1031
  6
CONTINUOUS
 62
    7
 10
213.53447414420936
 20
99.068549043182969
 11
213.53447414420936
 21
92.568549043182969
  0
LINE
  8
_1-6_1031
  6
CONTINUOUS
 62
    7
 10
167.63447414420935
 20
92.568549043182969
 11
166.03447414420936
 21
92.568549043182969
  0
LINE
  8
_1-6_1031
  6
CONTINUOUS
 62
    7
 10
175.03447414420936
 20
92.568549043182969
 11
161.03447414420936
 21
92.568549043182969
  0
LINE
  8
_1-6_1031
  6
CONTINUOUS
 62
    7
 10
161.03447414420936
 20
100.56854904318297
 11
161.03447414420936
 21
92.568549043182969
  0
LINE
  8
_1-6_1031
  6
CONTINUOUS
 62
    7
 10
174.30333514420937
 20
107.06854904318297
 11
161.76561314420934
 21
107.06854904318297
  0
LINE
  8
_1-6_1031
  6
CONTINUOUS
 62
    7
 10
161.26598214420937
 20
106.58776604318297
 11
161.03447414420936
 21
100.56854904318297
  0
LINE
  8
_1-6_1031
  6
CONTINUOUS
 62
    7
 10
174.80296614420934
 20
106.58776604318297
 11
175.03447414420936
 21
100.56854904318297
  0
LINE
  8
_1-6_1031
  6
CONTINUOUS
 62
    7
 10
175.03447414420936
 20
100.56854904318297
 11
175.03447414420936
 21
92.568549043182969
  0
ARC
  8
_1-6_1031
  6
CONTINUOUS
 62
    7
 10
174.30333514420937
 20
106.56854904318297
 40
0.5
 50
2.2025980000000001
 51
90
  0
ARC
  8
_1-6_1031
  6
CONTINUOUS
 62
    7
 10
161.76561314420934
 20
106.56854904318297
 40
0.5
 50
90
 51
177.79740199999998
  0
LINE
  8
_1-6_1031
  6
CONTINUOUS
 62
    7
 10
168.43447414420936
 20
92.568549043182969
 11
167.63447414420935
 21
92.568549043182969
  0
LINE
  8
_1-6_1031
  6
CONTINUOUS
 62
    7
 10
234.63447414420935
 20
92.568549043182969
 11
233.03447414420936
 21
92.568549043182969
  0
LINE
  8
_1-6_1031
  6
CONTINUOUS
 62
    7
 10
242.03447414420936
 20
92.568549043182969
 11
228.03447414420936
 21
92.568549043182969
  0
LINE
  8
_1-6_1031
  6
CONTINUOUS
 62
    7
 10
228.03447414420936
 20
100.56854904318297
 11
228.03447414420936
 21
92.568549043182969
  0
LINE
  8
_1-6_1031
  6
CONTINUOUS
 62
    7
 10
241.30333514420934
 20
107.06854904318297
 11
228.76561314420937
 21
107.06854904318297
  0
LINE
  8
_1-6_1031
  6
CONTINUOUS
 62
    7
 10
228.26598214420935
 20
106.58776604318297
 11
228.03447414420936
 21
100.56854904318297
  0
LINE
  8
_1-6_1031
  6
CONTINUOUS
 62
    7
 10
241.80296614420936
 20
106.58776604318297
 11
242.03447414420936
 21
100.56854904318297
  0
LINE
  8
_1-6_1031
  6
CONTINUOUS
 62
    7
 10
242.03447414420936
 20
100.56854904318297
 11
242.03447414420936
 21
92.568549043182969
  0
ARC
  8
_1-6_1031
  6
CONTINUOUS
 62
    7
 10
241.30333514420934
 20
106.56854904318297
 40
0.5
 50
2.2025980000000001
 51
90
  0
ARC
  8
_1-6_1031
  6
CONTINUOUS
 62
    7
 10
228.76561314420937
 20
106.56854904318297
 40
0.5
 50
90
 51
177.79740199999998
  0
LINE
  8
_1-6_1031
  6
CONTINUOUS
 62
    7
 10
235.43447414420936
 20
92.568549043182969
 11
234.63447414420935
 21
92.568549043182969
  0
LINE
  8
_1-6_1031
  6
CONTINUOUS
 62
    7
 10
206.53447414420936
 20
99.068549043182969
 11
213.53447414420936
 21
99.068549043182969
  0
TEXT
  8
_1-6_1031
 62
    7
 10
179.15947414420936
 20
149.21854904318297
 40
3.5
 41
0.5
 50
0
  1
C
  0
TEXT
  8
_1-6_1031
 62
    7
 10
179.15947414420936
 20
141.59854904318297
 40
3.5
 41
0.5
 50
0
  1
D
  0
TEXT
  8
_1-6_1031
 62
    7
 10
179.15947414420936
 20
133.97854904318297
 40
3.5
 41
0.5
 50
0
  1
E
  0
TEXT
  8
_1-6_1031
 62
    7
 10
219.23447414420934
 20
149.21854904318297
 40
3.5
 41
0.4
 50
0
  1
+12V
  0
TEXT
  8
_1-6_1031
 62
    7
 10
219.40947414420936
 20
141.59854904318297
 40
3.5
 41
0.5
 50
0
  1
GND
  0
TEXT
  8
_1-6_1031
 62
    7
 10
219.40947414420936
 20
133.97854904318297
 40
3.5
 41
0.5
 50
0
  1
GND
  0
TEXT
  8
_1-6_1031
 62
    7
 10
196.43447414420936
 20
166.14266404318298
 40
3.2000000000000002
 41
0.5
 50
0
  1
STA-04G
  0
TEXT
  8
_1-6_1031
 62
    7
 10
189.23447414420934
 20
162.14266404318298
 40
3.2000000000000002
 41
1
 50
0
  1
歪みゲージ変換器
  0
TEXT
  8
_1-6_1031
 62
    7
 10
189.03447414420936
 20
140.18857304318297
 40
3
 41
0.5
 50
0
  1
ZERO
  0
TEXT
  8
_1-6_1031
 62
    7
 10
198.03447414420936
 20
140.18857304318297
 40
3
 41
0.5
 50
0
  1
SPAN
  0
TEXT
  8
_1-6_1031
 62
    7
 10
179.15947414420936
 20
156.83854904318298
 40
3.5
 41
0.5
 50
0
  1
B
  0
TEXT
  8
_1-6_1031
 62
    7
 10
179.15947414420936
 20
164.45854904318298
 40
3.5
 41
0.5
 50
0
  1
A
  0
TEXT
  8
_1-6_1031
 62
    7
 10
219.40947414420936
 20
156.83854904318298
 40
3.5
 41
0.5
 50
0
  1
GND
  0
TEXT
  8
_1-6_1031
 62
    7
 10
219.40947414420936
 20
164.45854904318298
 40
3.5
 41
0.5
 50
0
  1
OUT
  0
TEXT
  8
_1-6_1031
 62
    7
 10
207.27379014420936
 20
140.18857304318297
 40
3
 41
0.5
 50
0
  1
GAIN
  0
TEXT
  8
_1-6_1031
 62
    7
 10
214.61780714420937
 20
132.81195604318299
 40
2.5
 41
0.5
 50
0
  1
ON
  0
TEXT
  8
_1-6_1031
 62
    7
 10
193.90947414420936
 20
158.32111304318298
 40
2.5
 41
0.5
 50
0
  1
1
  0
TEXT
  8
_1-6_1031
 62
    7
 10
198.90947414420936
 20
158.32111304318298
 40
2.5
 41
0.5
 50
0
  1
2
  0
TEXT
  8
_1-6_1031
 62
    7
 10
192.65947414420936
 20
155.32111304318298
 40
2.5
 41
0.5
 50
0
  1
OFF
  0
TEXT
  8
_1-6_1031
 62
    7
 10
193.28447414420936
 20
152.32111304318298
 40
2.5
 41
0.5
 50
0
  1
ON
  0
TEXT
  8
_1-6_1031
 62
    7
 10
197.65947414420936
 20
155.32111304318298
 40
2.5
 41
0.5
 50
0
  1
OFF
  0
TEXT
  8
_1-6_1031
 62
    7
 10
197.65947414420936
 20
152.32111304318298
 40
2.5
 41
0.5
 50
0
  1
OFF
  0
TEXT
  8
_1-6_1031
 62
    7
 10
192.65947414420936
 20
149.32111304318298
 40
2.5
 41
0.5
 50
0
  1
OFF
  0
TEXT
  8
_1-6_1031
 62
    7
 10
198.28447414420936
 20
149.32111304318298
 40
2.5
 41
0.5
 50
0
  1
ON
  0
TEXT
  8
_1-6_1031
 62
    7
 10
193.28447414420936
 20
146.32111304318298
 40
2.5
 41
0.5
 50
0
  1
ON
  0
TEXT
  8
_1-6_1031
 62
    7
 10
198.28447414420936
 20
146.32111304318298
 40
2.5
 41
0.5
 50
0
  1
ON
  0
TEXT
  8
_1-6_1031
 62
    7
 10
204.53447414420936
 20
158.32111304318298
 40
2.5
 41
0.5
 50
0
  1
GAIN
  0
TEXT
  8
_1-6_1031
 62
    7
 10
184.24255814420934
 20
158.18336004318297
 40
2.5
 41
0.45
 50
0
  1
2.5V
  0
TEXT
  8
_1-6_1031
 62
    7
 10
185.28447414420936
 20
146.71854904318297
 40
2.5
 41
0.5
 50
0
  1
IN
  0
TEXT
  8
_1-6_1031
 62
    7
 10
205.15947414420936
 20
155.32111304318298
 40
2.5
 41
0.5
 50
0
  1
200
  0
TEXT
  8
_1-6_1031
 62
    7
 10
205.15947414420936
 20
152.32111304318298
 40
2.5
 41
0.5
 50
0
  1
400
  0
TEXT
  8
_1-6_1031
 62
    7
 10
205.15947414420936
 20
149.32111304318298
 40
2.5
 41
0.5
 50
0
  1
800
  0
TEXT
  8
_1-6_1031
 62
    7
 10
204.53447414420936
 20
146.32111304318298
 40
2.5
 41
0.5
 50
0
  1
1600
  0
TEXT
  8
_1-6_1031
 62
    7
 10
207.27379014420936
 20
133.96854904318297
 40
3
 41
0.5
 50
0
  1
1
  0
TEXT
  8
_1-6_1031
 62
    7
 10
211.77379014420936
 20
133.96854904318297
 40
3
 41
0.5
 50
0
  1
2
  0
LINE
  8
_1-6_1031
  6
CONTINUOUS
 62
    7
 10
176.03447414420936
 20
169.96854904318297
 11
227.03447414420936
 21
169.96854904318297
  0
LINE
  8
_1-6_1031
  6
CONTINUOUS
 62
    7
 10
227.03447414420936
 20
131.96854904318297
 11
176.03447414420936
 21
131.96854904318297
  0
LINE
  8
_1-6_1031
  6
CONTINUOUS
 62
    7
 10
176.03447414420936
 20
131.96854904318297
 11
176.03447414420936
 21
169.96854904318297
  0
LINE
  8
_1-6_1031
  6
CONTINUOUS
 62
    7
 10
227.03447414420936
 20
169.96854904318297
 11
227.03447414420936
 21
131.96854904318297
  0
CIRCLE
  8
_1-6_1031
  6
CONTINUOUS
 62
    7
 10
192.03447414420936
 20
136.96854904318297
 40
0.8
  0
CIRCLE
  8
_1-6_1031
  6
CONTINUOUS
 62
    7
 10
201.03447414420936
 20
136.96854904318297
 40
0.8
  0
LINE
  8
_0-0_0
  6
CONTINUOUS
 62
    7
 10
243.03447414420936
 20
130.96854904318297
 11
252.53447414420936
 21
130.96854904318297
  0
LINE
  8
_0-0_0
  6
CONTINUOUS
 62
    7
 10
243.03447414420936
 20
170.96854904318297
 11
252.53447414420936
 21
170.96854904318297
  0
LINE
  8
_0-0_0
  6
CONTINUOUS
 62
    7
 10
251.53447414420936
 20
130.96854904318297
 11
251.53447414420936
 21
170.96854904318297
  0
TEXT
  8
_0-0_0
 62
    7
 10
250.53447414420936
 20
149.56854904318297
 40
3.5
 41
0.4
 50
90
  1
40
  0
LINE
  8
_0-0_0
  6
CONTINUOUS
 62
    7
 10
241.80333514420934
 20
107.06854904318297
 11
252.03447414420936
 21
107.06854904318297
  0
LINE
  8
_0-0_0
  6
CONTINUOUS
 62
    7
 10
242.53447414420936
 20
85.968549043182975
 11
252.03447414420936
 21
85.968549043182975
  0
LINE
  8
_0-0_0
  6
CONTINUOUS
 62
    7
 10
251.03447414420936
 20
85.968549043182975
 11
251.03447414420936
 21
107.06854904318297
  0
TEXT
  8
_0-0_0
 62
    7
 10
250.03447414420936
 20
95.118549043182981
 40
3.5
 41
0.4
 50
90
  1
22
  0
LINE
  8
_0-0_0
  6
CONTINUOUS
 62
    7
 10
161.03447414420936
 20
129.96854904318297
 11
161.03447414420936
 21
122.07233404318296
  0
LINE
  8
_0-0_0
  6
CONTINUOUS
 62
    7
 10
242.03447414420936
 20
129.96854904318297
 11
242.03447414420936
 21
122.07233404318296
  0
LINE
  8
_0-0_0
  6
CONTINUOUS
 62
    7
 10
161.03447414420936
 20
123.07233404318296
 11
242.03447414420936
 21
123.07233404318296
  0
TEXT
  8
_0-0_0
 62
    7
 10
200.33447414420937
 20
124.07233404318296
 40
3
 41
0.4
 50
0
  1
81
  0
LINE
  8
_0-0_0
  6
CONTINUOUS
 62
    7
 10
161.03447414420936
 20
133.91854904318296
 11
162.03447414420936
 21
133.91854904318296
  0
LINE
  8
_0-0_0
  6
CONTINUOUS
 62
    7
 10
161.03447414420936
 20
132.41854904318296
 11
175.03447414420936
 21
132.41854904318296
  0
LINE
  8
_0-0_0
  6
CONTINUOUS
 62
    7
 10
175.03447414420936
 20
133.91854904318296
 11
174.03447414420936
 21
133.91854904318296
  0
LINE
  8
_0-0_0
  6
CONTINUOUS
 62
    7
 10
167.53447414420936
 20
137.22854904318297
 11
167.53447414420936
 21
136.22854904318297
  0
LINE
  8
_0-0_0
  6
CONTINUOUS
 62
    7
 10
167.53447414420936
 20
136.22854904318297
 11
166.53447414420936
 21
136.22854904318297
  0
LINE
  8
_0-0_0
  6
CONTINUOUS
 62
    7
 10
166.53447414420936
 20
135.22854904318297
 11
167.53447414420936
 21
135.22854904318297
  0
LINE
  8
_0-0_0
  6
CONTINUOUS
 62
    7
 10
167.53447414420936
 20
135.22854904318297
 11
167.53447414420936
 21
134.22854904318297
  0
LINE
  8
_0-0_0
  6
CONTINUOUS
 62
    7
 10
168.53447414420936
 20
137.22854904318297
 11
168.53447414420936
 21
136.22854904318297
  0
LINE
  8
_0-0_0
  6
CONTINUOUS
 62
    7
 10
168.53447414420936
 20
136.22854904318297
 11
169.53447414420936
 21
136.22854904318297
  0
LINE
  8
_0-0_0
  6
CONTINUOUS
 62
    7
 10
169.53447414420936
 20
135.22854904318297
 11
168.53447414420936
 21
135.22854904318297
  0
LINE
  8
_0-0_0
  6
CONTINUOUS
 62
    7
 10
168.53447414420936
 20
135.22854904318297
 11
168.53447414420936
 21
134.22854904318297
  0
CIRCLE
  8
_0-0_0
  6
CONTINUOUS
 62
    7
 10
168.03447414420936
 20
135.72854904318297
 40
2.5
  0
LINE
  8
_0-0_0
  6
CONTINUOUS
 62
    7
 10
161.03447414420936
 20
137.53854904318297
 11
162.03447414420936
 21
137.53854904318297
  0
LINE
  8
_0-0_0
  6
CONTINUOUS
 62
    7
 10
161.03447414420936
 20
149.15854904318297
 11
162.03447414420936
 21
149.15854904318297
  0
LINE
  8
_0-0_0
  6
CONTINUOUS
 62
    7
 10
161.03447414420936
 20
147.65854904318297
 11
175.03447414420936
 21
147.65854904318297
  0
LINE
  8
_0-0_0
  6
CONTINUOUS
 62
    7
 10
161.03447414420936
 20
139.03854904318297
 11
175.03447414420936
 21
139.03854904318297
  0
LINE
  8
_0-0_0
  6
CONTINUOUS
 62
    7
 10
161.03447414420936
 20
149.15854904318297
 11
161.03447414420936
 21
145.15854904318297
  0
LINE
  8
_0-0_0
  6
CONTINUOUS
 62
    7
 10
175.03447414420936
 20
137.53854904318297
 11
174.03447414420936
 21
137.53854904318297
  0
LINE
  8
_0-0_0
  6
CONTINUOUS
 62
    7
 10
175.03447414420936
 20
149.15854904318297
 11
174.03447414420936
 21
149.15854904318297
  0
LINE
  8
_0-0_0
  6
CONTINUOUS
 62
    7
 10
175.03447414420936
 20
149.15854904318297
 11
175.03447414420936
 21
145.15854904318297
  0
LINE
  8
_0-0_0
  6
CONTINUOUS
 62
    7
 10
162.03447414420936
 20
139.03854904318297
 11
162.03447414420936
 21
132.41854904318296
  0
LINE
  8
_0-0_0
  6
CONTINUOUS
 62
    7
 10
163.53447414420936
 20
139.03854904318297
 11
163.53447414420936
 21
132.41854904318296
  0
LINE
  8
_0-0_0
  6
CONTINUOUS
 62
    7
 10
172.53447414420936
 20
139.03854904318297
 11
172.53447414420936
 21
132.41854904318296
  0
LINE
  8
_0-0_0
  6
CONTINUOUS
 62
    7
 10
174.03447414420936
 20
139.03854904318297
 11
174.03447414420936
 21
132.41854904318296
  0
LINE
  8
_0-0_0
  6
CONTINUOUS
 62
    7
 10
167.53447414420936
 20
152.46854904318297
 11
167.53447414420936
 21
151.46854904318297
  0
LINE
  8
_0-0_0
  6
CONTINUOUS
 62
    7
 10
167.53447414420936
 20
151.46854904318297
 11
166.53447414420936
 21
151.46854904318297
  0
LINE
  8
_0-0_0
  6
CONTINUOUS
 62
    7
 10
166.53447414420936
 20
150.46854904318297
 11
167.53447414420936
 21
150.46854904318297
  0
LINE
  8
_0-0_0
  6
CONTINUOUS
 62
    7
 10
167.53447414420936
 20
150.46854904318297
 11
167.53447414420936
 21
149.46854904318297
  0
LINE
  8
_0-0_0
  6
CONTINUOUS
 62
    7
 10
168.53447414420936
 20
152.46854904318297
 11
168.53447414420936
 21
151.46854904318297
  0
LINE
  8
_0-0_0
  6
CONTINUOUS
 62
    7
 10
168.53447414420936
 20
151.46854904318297
 11
169.53447414420936
 21
151.46854904318297
  0
LINE
  8
_0-0_0
  6
CONTINUOUS
 62
    7
 10
169.53447414420936
 20
150.46854904318297
 11
168.53447414420936
 21
150.46854904318297
  0
LINE
  8
_0-0_0
  6
CONTINUOUS
 62
    7
 10
168.53447414420936
 20
150.46854904318297
 11
168.53447414420936
 21
149.46854904318297
  0
CIRCLE
  8
_0-0_0
  6
CONTINUOUS
 62
    7
 10
168.03447414420936
 20
150.96854904318297
 40
2.5
  0
LINE
  8
_0-0_0
  6
CONTINUOUS
 62
    7
 10
161.03447414420936
 20
168.01854904318299
 11
162.03447414420936
 21
168.01854904318299
  0
LINE
  8
_0-0_0
  6
CONTINUOUS
 62
    7
 10
161.03447414420936
 20
170.76854904318299
 11
161.03447414420936
 21
168.01854904318299
  0
LINE
  8
_0-0_0
  6
CONTINUOUS
 62
    7
 10
175.03447414420936
 20
168.01854904318299
 11
174.03447414420936
 21
168.01854904318299
  0
LINE
  8
_0-0_0
  6
CONTINUOUS
 62
    7
 10
175.03447414420936
 20
170.76854904318299
 11
175.03447414420936
 21
168.01854904318299
  0
LINE
  8
_0-0_0
  6
CONTINUOUS
 62
    7
 10
162.03447414420936
 20
154.27854904318298
 11
162.03447414420936
 21
147.65854904318297
  0
LINE
  8
_0-0_0
  6
CONTINUOUS
 62
    7
 10
163.53447414420936
 20
154.27854904318298
 11
163.53447414420936
 21
147.65854904318297
  0
LINE
  8
_0-0_0
  6
CONTINUOUS
 62
    7
 10
172.53447414420936
 20
154.27854904318298
 11
172.53447414420936
 21
147.65854904318297
  0
LINE
  8
_0-0_0
  6
CONTINUOUS
 62
    7
 10
174.03447414420936
 20
154.27854904318298
 11
174.03447414420936
 21
147.65854904318297
  0
LINE
  8
_0-0_0
  6
CONTINUOUS
 62
    7
 10
161.03447414420936
 20
169.51854904318299
 11
175.03447414420936
 21
169.51854904318299
  0
LINE
  8
_0-0_0
  6
CONTINUOUS
 62
    7
 10
161.03447414420936
 20
170.76854904318299
 11
175.03447414420936
 21
170.76854904318299
  0
LINE
  8
_0-0_0
  6
CONTINUOUS
 62
    7
 10
161.03447414420936
 20
133.91854904318296
 11
161.03447414420936
 21
131.16854904318296
  0
LINE
  8
_0-0_0
  6
CONTINUOUS
 62
    7
 10
175.03447414420936
 20
133.91854904318296
 11
175.03447414420936
 21
131.16854904318296
  0
CIRCLE
  8
_0-0_0
  6
CONTINUOUS
 62
    7
 10
168.03447414420936
 20
150.96854904318297
 40
0.5999999999999999
  0
CIRCLE
  8
_0-0_0
  6
CONTINUOUS
 62
    7
 10
168.03447414420936
 20
150.96854904318297
 40
0.2999999999999999
  0
LINE
  8
_0-0_0
  6
CONTINUOUS
 62
    7
 10
175.03447414420936
 20
131.16854904318296
 11
161.03447414420936
 21
131.16854904318296
  0
LINE
  8
_0-0_0
  6
CONTINUOUS
 62
    7
 10
167.53447414420936
 20
144.84854904318297
 11
167.53447414420936
 21
143.84854904318297
  0
LINE
  8
_0-0_0
  6
CONTINUOUS
 62
    7
 10
167.53447414420936
 20
143.84854904318297
 11
166.53447414420936
 21
143.84854904318297
  0
LINE
  8
_0-0_0
  6
CONTINUOUS
 62
    7
 10
166.53447414420936
 20
142.84854904318297
 11
167.53447414420936
 21
142.84854904318297
  0
LINE
  8
_0-0_0
  6
CONTINUOUS
 62
    7
 10
167.53447414420936
 20
142.84854904318297
 11
167.53447414420936
 21
141.84854904318297
  0
LINE
  8
_0-0_0
  6
CONTINUOUS
 62
    7
 10
168.53447414420936
 20
144.84854904318297
 11
168.53447414420936
 21
143.84854904318297
  0
LINE
  8
_0-0_0
  6
CONTINUOUS
 62
    7
 10
168.53447414420936
 20
143.84854904318297
 11
169.53447414420936
 21
143.84854904318297
  0
LINE
  8
_0-0_0
  6
CONTINUOUS
 62
    7
 10
169.53447414420936
 20
142.84854904318297
 11
168.53447414420936
 21
142.84854904318297
  0
LINE
  8
_0-0_0
  6
CONTINUOUS
 62
    7
 10
168.53447414420936
 20
142.84854904318297
 11
168.53447414420936
 21
141.84854904318297
  0
CIRCLE
  8
_0-0_0
  6
CONTINUOUS
 62
    7
 10
168.03447414420936
 20
143.34854904318297
 40
2.5
  0
LINE
  8
_0-0_0
  6
CONTINUOUS
 62
    7
 10
162.03447414420936
 20
146.65854904318297
 11
162.03447414420936
 21
140.03854904318297
  0
LINE
  8
_0-0_0
  6
CONTINUOUS
 62
    7
 10
163.53447414420936
 20
146.65854904318297
 11
163.53447414420936
 21
140.03854904318297
  0
LINE
  8
_0-0_0
  6
CONTINUOUS
 62
    7
 10
172.53447414420936
 20
146.65854904318297
 11
172.53447414420936
 21
140.03854904318297
  0
LINE
  8
_0-0_0
  6
CONTINUOUS
 62
    7
 10
174.03447414420936
 20
146.65854904318297
 11
174.03447414420936
 21
140.03854904318297
  0
LINE
  8
_0-0_0
  6
CONTINUOUS
 62
    7
 10
161.03447414420936
 20
146.65854904318297
 11
175.03447414420936
 21
146.65854904318297
  0
LINE
  8
_0-0_0
  6
CONTINUOUS
 62
    7
 10
161.03447414420936
 20
140.03854904318297
 11
175.03447414420936
 21
140.03854904318297
  0
LINE
  8
_0-0_0
  6
CONTINUOUS
 62
    7
 10
161.03447414420936
 20
145.15854904318297
 11
162.03447414420936
 21
145.15854904318297
  0
LINE
  8
_0-0_0
  6
CONTINUOUS
 62
    7
 10
175.03447414420936
 20
145.15854904318297
 11
174.03447414420936
 21
145.15854904318297
  0
LINE
  8
_0-0_0
  6
CONTINUOUS
 62
    7
 10
161.03447414420936
 20
141.53854904318297
 11
162.03447414420936
 21
141.53854904318297
  0
LINE
  8
_0-0_0
  6
CONTINUOUS
 62
    7
 10
175.03447414420936
 20
141.53854904318297
 11
174.03447414420936
 21
141.53854904318297
  0
LINE
  8
_0-0_0
  6
CONTINUOUS
 62
    7
 10
161.03447414420936
 20
141.53854904318297
 11
161.03447414420936
 21
137.53854904318297
  0
LINE
  8
_0-0_0
  6
CONTINUOUS
 62
    7
 10
175.03447414420936
 20
141.53854904318297
 11
175.03447414420936
 21
137.53854904318297
  0
LINE
  8
_0-0_0
  6
CONTINUOUS
 62
    7
 10
161.03447414420936
 20
156.77854904318298
 11
162.03447414420936
 21
156.77854904318298
  0
LINE
  8
_0-0_0
  6
CONTINUOUS
 62
    7
 10
161.03447414420936
 20
156.77854904318298
 11
161.03447414420936
 21
152.77854904318298
  0
LINE
  8
_0-0_0
  6
CONTINUOUS
 62
    7
 10
162.03447414420936
 20
161.89854904318298
 11
162.03447414420936
 21
155.27854904318298
  0
LINE
  8
_0-0_0
  6
CONTINUOUS
 62
    7
 10
163.53447414420936
 20
161.89854904318298
 11
163.53447414420936
 21
155.27854904318298
  0
LINE
  8
_0-0_0
  6
CONTINUOUS
 62
    7
 10
161.03447414420936
 20
152.77854904318298
 11
162.03447414420936
 21
152.77854904318298
  0
LINE
  8
_0-0_0
  6
CONTINUOUS
 62
    7
 10
175.03447414420936
 20
156.77854904318298
 11
174.03447414420936
 21
156.77854904318298
  0
LINE
  8
_0-0_0
  6
CONTINUOUS
 62
    7
 10
175.03447414420936
 20
156.77854904318298
 11
175.03447414420936
 21
152.77854904318298
  0
LINE
  8
_0-0_0
  6
CONTINUOUS
 62
    7
 10
172.53447414420936
 20
161.89854904318298
 11
172.53447414420936
 21
155.27854904318298
  0
LINE
  8
_0-0_0
  6
CONTINUOUS
 62
    7
 10
174.03447414420936
 20
161.89854904318298
 11
174.03447414420936
 21
155.27854904318298
  0
LINE
  8
_0-0_0
  6
CONTINUOUS
 62
    7
 10
175.03447414420936
 20
152.77854904318298
 11
174.03447414420936
 21
152.77854904318298
  0
LINE
  8
_0-0_0
  6
CONTINUOUS
 62
    7
 10
161.03447414420936
 20
155.27854904318298
 11
175.03447414420936
 21
155.27854904318298
  0
LINE
  8
_0-0_0
  6
CONTINUOUS
 62
    7
 10
161.03447414420936
 20
154.27854904318298
 11
175.03447414420936
 21
154.27854904318298
  0
LINE
  8
_0-0_0
  6
CONTINUOUS
 62
    7
 10
167.53447414420936
 20
160.08854904318298
 11
167.53447414420936
 21
159.08854904318298
  0
LINE
  8
_0-0_0
  6
CONTINUOUS
 62
    7
 10
167.53447414420936
 20
159.08854904318298
 11
166.53447414420936
 21
159.08854904318298
  0
LINE
  8
_0-0_0
  6
CONTINUOUS
 62
    7
 10
166.53447414420936
 20
158.08854904318298
 11
167.53447414420936
 21
158.08854904318298
  0
LINE
  8
_0-0_0
  6
CONTINUOUS
 62
    7
 10
167.53447414420936
 20
158.08854904318298
 11
167.53447414420936
 21
157.08854904318298
  0
LINE
  8
_0-0_0
  6
CONTINUOUS
 62
    7
 10
168.53447414420936
 20
160.08854904318298
 11
168.53447414420936
 21
159.08854904318298
  0
LINE
  8
_0-0_0
  6
CONTINUOUS
 62
    7
 10
168.53447414420936
 20
159.08854904318298
 11
169.53447414420936
 21
159.08854904318298
  0
LINE
  8
_0-0_0
  6
CONTINUOUS
 62
    7
 10
169.53447414420936
 20
158.08854904318298
 11
168.53447414420936
 21
158.08854904318298
  0
LINE
  8
_0-0_0
  6
CONTINUOUS
 62
    7
 10
168.53447414420936
 20
158.08854904318298
 11
168.53447414420936
 21
157.08854904318298
  0
CIRCLE
  8
_0-0_0
  6
CONTINUOUS
 62
    7
 10
168.03447414420936
 20
158.58854904318298
 40
2.5
  0
LINE
  8
_0-0_0
  6
CONTINUOUS
 62
    7
 10
161.03447414420936
 20
164.39854904318298
 11
162.03447414420936
 21
164.39854904318298
  0
LINE
  8
_0-0_0
  6
CONTINUOUS
 62
    7
 10
162.03447414420936
 20
169.51854904318299
 11
162.03447414420936
 21
162.89854904318298
  0
LINE
  8
_0-0_0
  6
CONTINUOUS
 62
    7
 10
163.53447414420936
 20
169.51854904318299
 11
163.53447414420936
 21
162.89854904318298
  0
LINE
  8
_0-0_0
  6
CONTINUOUS
 62
    7
 10
175.03447414420936
 20
164.39854904318298
 11
174.03447414420936
 21
164.39854904318298
  0
LINE
  8
_0-0_0
  6
CONTINUOUS
 62
    7
 10
172.53447414420936
 20
169.51854904318299
 11
172.53447414420936
 21
162.89854904318298
  0
LINE
  8
_0-0_0
  6
CONTINUOUS
 62
    7
 10
174.03447414420936
 20
169.51854904318299
 11
174.03447414420936
 21
162.89854904318298
  0
LINE
  8
_0-0_0
  6
CONTINUOUS
 62
    7
 10
161.03447414420936
 20
162.89854904318298
 11
175.03447414420936
 21
162.89854904318298
  0
LINE
  8
_0-0_0
  6
CONTINUOUS
 62
    7
 10
161.03447414420936
 20
161.89854904318298
 11
175.03447414420936
 21
161.89854904318298
  0
LINE
  8
_0-0_0
  6
CONTINUOUS
 62
    7
 10
167.53447414420936
 20
167.70854904318298
 11
167.53447414420936
 21
166.70854904318298
  0
LINE
  8
_0-0_0
  6
CONTINUOUS
 62
    7
 10
167.53447414420936
 20
166.70854904318298
 11
166.53447414420936
 21
166.70854904318298
  0
LINE
  8
_0-0_0
  6
CONTINUOUS
 62
    7
 10
166.53447414420936
 20
165.70854904318298
 11
167.53447414420936
 21
165.70854904318298
  0
LINE
  8
_0-0_0
  6
CONTINUOUS
 62
    7
 10
167.53447414420936
 20
165.70854904318298
 11
167.53447414420936
 21
164.70854904318298
  0
LINE
  8
_0-0_0
  6
CONTINUOUS
 62
    7
 10
168.53447414420936
 20
167.70854904318298
 11
168.53447414420936
 21
166.70854904318298
  0
LINE
  8
_0-0_0
  6
CONTINUOUS
 62
    7
 10
168.53447414420936
 20
166.70854904318298
 11
169.53447414420936
 21
166.70854904318298
  0
LINE
  8
_0-0_0
  6
CONTINUOUS
 62
    7
 10
169.53447414420936
 20
165.70854904318298
 11
168.53447414420936
 21
165.70854904318298
  0
LINE
  8
_0-0_0
  6
CONTINUOUS
 62
    7
 10
168.53447414420936
 20
165.70854904318298
 11
168.53447414420936
 21
164.70854904318298
  0
CIRCLE
  8
_0-0_0
  6
CONTINUOUS
 62
    7
 10
168.03447414420936
 20
166.20854904318298
 40
2.5
  0
LINE
  8
_0-0_0
  6
CONTINUOUS
 62
    7
 10
161.03447414420936
 20
164.39854904318298
 11
161.03447414420936
 21
160.39854904318298
  0
LINE
  8
_0-0_0
  6
CONTINUOUS
 62
    7
 10
175.03447414420936
 20
164.39854904318298
 11
175.03447414420936
 21
160.39854904318298
  0
LINE
  8
_0-0_0
  6
CONTINUOUS
 62
    7
 10
161.03447414420936
 20
160.39854904318298
 11
162.03447414420936
 21
160.39854904318298
  0
LINE
  8
_0-0_0
  6
CONTINUOUS
 62
    7
 10
175.03447414420936
 20
160.39854904318298
 11
174.03447414420936
 21
160.39854904318298
  0
LINE
  8
_0-0_0
  6
CONTINUOUS
 62
    7
 10
228.03447414420936
 20
133.91854904318296
 11
229.03447414420936
 21
133.91854904318296
  0
LINE
  8
_0-0_0
  6
CONTINUOUS
 62
    7
 10
228.03447414420936
 20
132.41854904318296
 11
242.03447414420936
 21
132.41854904318296
  0
LINE
  8
_0-0_0
  6
CONTINUOUS
 62
    7
 10
242.03447414420936
 20
133.91854904318296
 11
241.03447414420936
 21
133.91854904318296
  0
LINE
  8
_0-0_0
  6
CONTINUOUS
 62
    7
 10
234.53447414420936
 20
137.22854904318297
 11
234.53447414420936
 21
136.22854904318297
  0
LINE
  8
_0-0_0
  6
CONTINUOUS
 62
    7
 10
234.53447414420936
 20
136.22854904318297
 11
233.53447414420936
 21
136.22854904318297
  0
LINE
  8
_0-0_0
  6
CONTINUOUS
 62
    7
 10
233.53447414420936
 20
135.22854904318297
 11
234.53447414420936
 21
135.22854904318297
  0
LINE
  8
_0-0_0
  6
CONTINUOUS
 62
    7
 10
234.53447414420936
 20
135.22854904318297
 11
234.53447414420936
 21
134.22854904318297
  0
LINE
  8
_0-0_0
  6
CONTINUOUS
 62
    7
 10
235.53447414420936
 20
137.22854904318297
 11
235.53447414420936
 21
136.22854904318297
  0
LINE
  8
_0-0_0
  6
CONTINUOUS
 62
    7
 10
235.53447414420936
 20
136.22854904318297
 11
236.53447414420936
 21
136.22854904318297
  0
LINE
  8
_0-0_0
  6
CONTINUOUS
 62
    7
 10
236.53447414420936
 20
135.22854904318297
 11
235.53447414420936
 21
135.22854904318297
  0
LINE
  8
_0-0_0
  6
CONTINUOUS
 62
    7
 10
235.53447414420936
 20
135.22854904318297
 11
235.53447414420936
 21
134.22854904318297
  0
CIRCLE
  8
_0-0_0
  6
CONTINUOUS
 62
    7
 10
235.03447414420936
 20
135.72854904318297
 40
2.5
  0
LINE
  8
_0-0_0
  6
CONTINUOUS
 62
    7
 10
228.03447414420936
 20
137.53854904318297
 11
229.03447414420936
 21
137.53854904318297
  0
LINE
  8
_0-0_0
  6
CONTINUOUS
 62
    7
 10
228.03447414420936
 20
149.15854904318297
 11
229.03447414420936
 21
149.15854904318297
  0
LINE
  8
_0-0_0
  6
CONTINUOUS
 62
    7
 10
228.03447414420936
 20
147.65854904318297
 11
242.03447414420936
 21
147.65854904318297
  0
LINE
  8
_0-0_0
  6
CONTINUOUS
 62
    7
 10
228.03447414420936
 20
139.03854904318297
 11
242.03447414420936
 21
139.03854904318297
  0
LINE
  8
_0-0_0
  6
CONTINUOUS
 62
    7
 10
228.03447414420936
 20
149.15854904318297
 11
228.03447414420936
 21
145.15854904318297
  0
LINE
  8
_0-0_0
  6
CONTINUOUS
 62
    7
 10
242.03447414420936
 20
137.53854904318297
 11
241.03447414420936
 21
137.53854904318297
  0
LINE
  8
_0-0_0
  6
CONTINUOUS
 62
    7
 10
242.03447414420936
 20
149.15854904318297
 11
241.03447414420936
 21
149.15854904318297
  0
LINE
  8
_0-0_0
  6
CONTINUOUS
 62
    7
 10
242.03447414420936
 20
149.15854904318297
 11
242.03447414420936
 21
145.15854904318297
  0
LINE
  8
_0-0_0
  6
CONTINUOUS
 62
    7
 10
229.03447414420936
 20
139.03854904318297
 11
229.03447414420936
 21
132.41854904318296
  0
LINE
  8
_0-0_0
  6
CONTINUOUS
 62
    7
 10
230.53447414420936
 20
139.03854904318297
 11
230.53447414420936
 21
132.41854904318296
  0
LINE
  8
_0-0_0
  6
CONTINUOUS
 62
    7
 10
239.53447414420936
 20
139.03854904318297
 11
239.53447414420936
 21
132.41854904318296
  0
LINE
  8
_0-0_0
  6
CONTINUOUS
 62
    7
 10
241.03447414420936
 20
139.03854904318297
 11
241.03447414420936
 21
132.41854904318296
  0
LINE
  8
_0-0_0
  6
CONTINUOUS
 62
    7
 10
234.53447414420936
 20
152.46854904318297
 11
234.53447414420936
 21
151.46854904318297
  0
LINE
  8
_0-0_0
  6
CONTINUOUS
 62
    7
 10
234.53447414420936
 20
151.46854904318297
 11
233.53447414420936
 21
151.46854904318297
  0
LINE
  8
_0-0_0
  6
CONTINUOUS
 62
    7
 10
233.53447414420936
 20
150.46854904318297
 11
234.53447414420936
 21
150.46854904318297
  0
LINE
  8
_0-0_0
  6
CONTINUOUS
 62
    7
 10
234.53447414420936
 20
150.46854904318297
 11
234.53447414420936
 21
149.46854904318297
  0
LINE
  8
_0-0_0
  6
CONTINUOUS
 62
    7
 10
235.53447414420936
 20
152.46854904318297
 11
235.53447414420936
 21
151.46854904318297
  0
LINE
  8
_0-0_0
  6
CONTINUOUS
 62
    7
 10
235.53447414420936
 20
151.46854904318297
 11
236.53447414420936
 21
151.46854904318297
  0
LINE
  8
_0-0_0
  6
CONTINUOUS
 62
    7
 10
236.53447414420936
 20
150.46854904318297
 11
235.53447414420936
 21
150.46854904318297
  0
LINE
  8
_0-0_0
  6
CONTINUOUS
 62
    7
 10
235.53447414420936
 20
150.46854904318297
 11
235.53447414420936
 21
149.46854904318297
  0
CIRCLE
  8
_0-0_0
  6
CONTINUOUS
 62
    7
 10
235.03447414420936
 20
150.96854904318297
 40
2.5
  0
LINE
  8
_0-0_0
  6
CONTINUOUS
 62
    7
 10
228.03447414420936
 20
168.01854904318299
 11
229.03447414420936
 21
168.01854904318299
  0
LINE
  8
_0-0_0
  6
CONTINUOUS
 62
    7
 10
228.03447414420936
 20
170.76854904318299
 11
228.03447414420936
 21
168.01854904318299
  0
LINE
  8
_0-0_0
  6
CONTINUOUS
 62
    7
 10
242.03447414420936
 20
168.01854904318299
 11
241.03447414420936
 21
168.01854904318299
  0
LINE
  8
_0-0_0
  6
CONTINUOUS
 62
    7
 10
242.03447414420936
 20
170.76854904318299
 11
242.03447414420936
 21
168.01854904318299
  0
LINE
  8
_0-0_0
  6
CONTINUOUS
 62
    7
 10
229.03447414420936
 20
154.27854904318298
 11
229.03447414420936
 21
147.65854904318297
  0
LINE
  8
_0-0_0
  6
CONTINUOUS
 62
    7
 10
230.53447414420936
 20
154.27854904318298
 11
230.53447414420936
 21
147.65854904318297
  0
LINE
  8
_0-0_0
  6
CONTINUOUS
 62
    7
 10
239.53447414420936
 20
154.27854904318298
 11
239.53447414420936
 21
147.65854904318297
  0
LINE
  8
_0-0_0
  6
CONTINUOUS
 62
    7
 10
241.03447414420936
 20
154.27854904318298
 11
241.03447414420936
 21
147.65854904318297
  0
LINE
  8
_0-0_0
  6
CONTINUOUS
 62
    7
 10
228.03447414420936
 20
169.51854904318299
 11
242.03447414420936
 21
169.51854904318299
  0
LINE
  8
_0-0_0
  6
CONTINUOUS
 62
    7
 10
228.03447414420936
 20
170.76854904318299
 11
242.03447414420936
 21
170.76854904318299
  0
LINE
  8
_0-0_0
  6
CONTINUOUS
 62
    7
 10
228.03447414420936
 20
133.91854904318296
 11
228.03447414420936
 21
131.16854904318296
  0
LINE
  8
_0-0_0
  6
CONTINUOUS
 62
    7
 10
242.03447414420936
 20
133.91854904318296
 11
242.03447414420936
 21
131.16854904318296
  0
CIRCLE
  8
_0-0_0
  6
CONTINUOUS
 62
    7
 10
235.03447414420936
 20
150.96854904318297
 40
0.5999999999999999
  0
CIRCLE
  8
_0-0_0
  6
CONTINUOUS
 62
    7
 10
235.03447414420936
 20
150.96854904318297
 40
0.2999999999999999
  0
LINE
  8
_0-0_0
  6
CONTINUOUS
 62
    7
 10
242.03447414420936
 20
131.16854904318296
 11
228.03447414420936
 21
131.16854904318296
  0
LINE
  8
_0-0_0
  6
CONTINUOUS
 62
    7
 10
234.53447414420936
 20
144.84854904318297
 11
234.53447414420936
 21
143.84854904318297
  0
LINE
  8
_0-0_0
  6
CONTINUOUS
 62
    7
 10
234.53447414420936
 20
143.84854904318297
 11
233.53447414420936
 21
143.84854904318297
  0
LINE
  8
_0-0_0
  6
CONTINUOUS
 62
    7
 10
233.53447414420936
 20
142.84854904318297
 11
234.53447414420936
 21
142.84854904318297
  0
LINE
  8
_0-0_0
  6
CONTINUOUS
 62
    7
 10
234.53447414420936
 20
142.84854904318297
 11
234.53447414420936
 21
141.84854904318297
  0
LINE
  8
_0-0_0
  6
CONTINUOUS
 62
    7
 10
235.53447414420936
 20
144.84854904318297
 11
235.53447414420936
 21
143.84854904318297
  0
LINE
  8
_0-0_0
  6
CONTINUOUS
 62
    7
 10
235.53447414420936
 20
143.84854904318297
 11
236.53447414420936
 21
143.84854904318297
  0
LINE
  8
_0-0_0
  6
CONTINUOUS
 62
    7
 10
236.53447414420936
 20
142.84854904318297
 11
235.53447414420936
 21
142.84854904318297
  0
LINE
  8
_0-0_0
  6
CONTINUOUS
 62
    7
 10
235.53447414420936
 20
142.84854904318297
 11
235.53447414420936
 21
141.84854904318297
  0
CIRCLE
  8
_0-0_0
  6
CONTINUOUS
 62
    7
 10
235.03447414420936
 20
143.34854904318297
 40
2.5
  0
LINE
  8
_0-0_0
  6
CONTINUOUS
 62
    7
 10
229.03447414420936
 20
146.65854904318297
 11
229.03447414420936
 21
140.03854904318297
  0
LINE
  8
_0-0_0
  6
CONTINUOUS
 62
    7
 10
230.53447414420936
 20
146.65854904318297
 11
230.53447414420936
 21
140.03854904318297
  0
LINE
  8
_0-0_0
  6
CONTINUOUS
 62
    7
 10
239.53447414420936
 20
146.65854904318297
 11
239.53447414420936
 21
140.03854904318297
  0
LINE
  8
_0-0_0
  6
CONTINUOUS
 62
    7
 10
241.03447414420936
 20
146.65854904318297
 11
241.03447414420936
 21
140.03854904318297
  0
LINE
  8
_0-0_0
  6
CONTINUOUS
 62
    7
 10
228.03447414420936
 20
146.65854904318297
 11
242.03447414420936
 21
146.65854904318297
  0
LINE
  8
_0-0_0
  6
CONTINUOUS
 62
    7
 10
228.03447414420936
 20
140.03854904318297
 11
242.03447414420936
 21
140.03854904318297
  0
LINE
  8
_0-0_0
  6
CONTINUOUS
 62
    7
 10
228.03447414420936
 20
145.15854904318297
 11
229.03447414420936
 21
145.15854904318297
  0
LINE
  8
_0-0_0
  6
CONTINUOUS
 62
    7
 10
242.03447414420936
 20
145.15854904318297
 11
241.03447414420936
 21
145.15854904318297
  0
LINE
  8
_0-0_0
  6
CONTINUOUS
 62
    7
 10
228.03447414420936
 20
141.53854904318297
 11
229.03447414420936
 21
141.53854904318297
  0
LINE
  8
_0-0_0
  6
CONTINUOUS
 62
    7
 10
242.03447414420936
 20
141.53854904318297
 11
241.03447414420936
 21
141.53854904318297
  0
LINE
  8
_0-0_0
  6
CONTINUOUS
 62
    7
 10
228.03447414420936
 20
141.53854904318297
 11
228.03447414420936
 21
137.53854904318297
  0
LINE
  8
_0-0_0
  6
CONTINUOUS
 62
    7
 10
242.03447414420936
 20
141.53854904318297
 11
242.03447414420936
 21
137.53854904318297
  0
LINE
  8
_0-0_0
  6
CONTINUOUS
 62
    7
 10
228.03447414420936
 20
156.77854904318298
 11
229.03447414420936
 21
156.77854904318298
  0
LINE
  8
_0-0_0
  6
CONTINUOUS
 62
    7
 10
228.03447414420936
 20
156.77854904318298
 11
228.03447414420936
 21
152.77854904318298
  0
LINE
  8
_0-0_0
  6
CONTINUOUS
 62
    7
 10
229.03447414420936
 20
161.89854904318298
 11
229.03447414420936
 21
155.27854904318298
  0
LINE
  8
_0-0_0
  6
CONTINUOUS
 62
    7
 10
230.53447414420936
 20
161.89854904318298
 11
230.53447414420936
 21
155.27854904318298
  0
LINE
  8
_0-0_0
  6
CONTINUOUS
 62
    7
 10
228.03447414420936
 20
152.77854904318298
 11
229.03447414420936
 21
152.77854904318298
  0
LINE
  8
_0-0_0
  6
CONTINUOUS
 62
    7
 10
242.03447414420936
 20
156.77854904318298
 11
241.03447414420936
 21
156.77854904318298
  0
LINE
  8
_0-0_0
  6
CONTINUOUS
 62
    7
 10
242.03447414420936
 20
156.77854904318298
 11
242.03447414420936
 21
152.77854904318298
  0
LINE
  8
_0-0_0
  6
CONTINUOUS
 62
    7
 10
239.53447414420936
 20
161.89854904318298
 11
239.53447414420936
 21
155.27854904318298
  0
LINE
  8
_0-0_0
  6
CONTINUOUS
 62
    7
 10
241.03447414420936
 20
161.89854904318298
 11
241.03447414420936
 21
155.27854904318298
  0
LINE
  8
_0-0_0
  6
CONTINUOUS
 62
    7
 10
242.03447414420936
 20
152.77854904318298
 11
241.03447414420936
 21
152.77854904318298
  0
LINE
  8
_0-0_0
  6
CONTINUOUS
 62
    7
 10
228.03447414420936
 20
155.27854904318298
 11
242.03447414420936
 21
155.27854904318298
  0
LINE
  8
_0-0_0
  6
CONTINUOUS
 62
    7
 10
228.03447414420936
 20
154.27854904318298
 11
242.03447414420936
 21
154.27854904318298
  0
LINE
  8
_0-0_0
  6
CONTINUOUS
 62
    7
 10
234.53447414420936
 20
160.08854904318298
 11
234.53447414420936
 21
159.08854904318298
  0
LINE
  8
_0-0_0
  6
CONTINUOUS
 62
    7
 10
234.53447414420936
 20
159.08854904318298
 11
233.53447414420936
 21
159.08854904318298
  0
LINE
  8
_0-0_0
  6
CONTINUOUS
 62
    7
 10
233.53447414420936
 20
158.08854904318298
 11
234.53447414420936
 21
158.08854904318298
  0
LINE
  8
_0-0_0
  6
CONTINUOUS
 62
    7
 10
234.53447414420936
 20
158.08854904318298
 11
234.53447414420936
 21
157.08854904318298
  0
LINE
  8
_0-0_0
  6
CONTINUOUS
 62
    7
 10
235.53447414420936
 20
160.08854904318298
 11
235.53447414420936
 21
159.08854904318298
  0
LINE
  8
_0-0_0
  6
CONTINUOUS
 62
    7
 10
235.53447414420936
 20
159.08854904318298
 11
236.53447414420936
 21
159.08854904318298
  0
LINE
  8
_0-0_0
  6
CONTINUOUS
 62
    7
 10
236.53447414420936
 20
158.08854904318298
 11
235.53447414420936
 21
158.08854904318298
  0
LINE
  8
_0-0_0
  6
CONTINUOUS
 62
    7
 10
235.53447414420936
 20
158.08854904318298
 11
235.53447414420936
 21
157.08854904318298
  0
CIRCLE
  8
_0-0_0
  6
CONTINUOUS
 62
    7
 10
235.03447414420936
 20
158.58854904318298
 40
2.5
  0
LINE
  8
_0-0_0
  6
CONTINUOUS
 62
    7
 10
228.03447414420936
 20
164.39854904318298
 11
229.03447414420936
 21
164.39854904318298
  0
LINE
  8
_0-0_0
  6
CONTINUOUS
 62
    7
 10
229.03447414420936
 20
169.51854904318299
 11
229.03447414420936
 21
162.89854904318298
  0
LINE
  8
_0-0_0
  6
CONTINUOUS
 62
    7
 10
230.53447414420936
 20
169.51854904318299
 11
230.53447414420936
 21
162.89854904318298
  0
LINE
  8
_0-0_0
  6
CONTINUOUS
 62
    7
 10
242.03447414420936
 20
164.39854904318298
 11
241.03447414420936
 21
164.39854904318298
  0
LINE
  8
_0-0_0
  6
CONTINUOUS
 62
    7
 10
239.53447414420936
 20
169.51854904318299
 11
239.53447414420936
 21
162.89854904318298
  0
LINE
  8
_0-0_0
  6
CONTINUOUS
 62
    7
 10
241.03447414420936
 20
169.51854904318299
 11
241.03447414420936
 21
162.89854904318298
  0
LINE
  8
_0-0_0
  6
CONTINUOUS
 62
    7
 10
228.03447414420936
 20
162.89854904318298
 11
242.03447414420936
 21
162.89854904318298
  0
LINE
  8
_0-0_0
  6
CONTINUOUS
 62
    7
 10
228.03447414420936
 20
161.89854904318298
 11
242.03447414420936
 21
161.89854904318298
  0
LINE
  8
_0-0_0
  6
CONTINUOUS
 62
    7
 10
234.53447414420936
 20
167.70854904318298
 11
234.53447414420936
 21
166.70854904318298
  0
LINE
  8
_0-0_0
  6
CONTINUOUS
 62
    7
 10
234.53447414420936
 20
166.70854904318298
 11
233.53447414420936
 21
166.70854904318298
  0
LINE
  8
_0-0_0
  6
CONTINUOUS
 62
    7
 10
233.53447414420936
 20
165.70854904318298
 11
234.53447414420936
 21
165.70854904318298
  0
LINE
  8
_0-0_0
  6
CONTINUOUS
 62
    7
 10
234.53447414420936
 20
165.70854904318298
 11
234.53447414420936
 21
164.70854904318298
  0
LINE
  8
_0-0_0
  6
CONTINUOUS
 62
    7
 10
235.53447414420936
 20
167.70854904318298
 11
235.53447414420936
 21
166.70854904318298
  0
LINE
  8
_0-0_0
  6
CONTINUOUS
 62
    7
 10
235.53447414420936
 20
166.70854904318298
 11
236.53447414420936
 21
166.70854904318298
  0
LINE
  8
_0-0_0
  6
CONTINUOUS
 62
    7
 10
236.53447414420936
 20
165.70854904318298
 11
235.53447414420936
 21
165.70854904318298
  0
LINE
  8
_0-0_0
  6
CONTINUOUS
 62
    7
 10
235.53447414420936
 20
165.70854904318298
 11
235.53447414420936
 21
164.70854904318298
  0
CIRCLE
  8
_0-0_0
  6
CONTINUOUS
 62
    7
 10
235.03447414420936
 20
166.20854904318298
 40
2.5
  0
LINE
  8
_0-0_0
  6
CONTINUOUS
 62
    7
 10
228.03447414420936
 20
164.39854904318298
 11
228.03447414420936
 21
160.39854904318298
  0
LINE
  8
_0-0_0
  6
CONTINUOUS
 62
    7
 10
242.03447414420936
 20
164.39854904318298
 11
242.03447414420936
 21
160.39854904318298
  0
LINE
  8
_0-0_0
  6
CONTINUOUS
 62
    7
 10
228.03447414420936
 20
160.39854904318298
 11
229.03447414420936
 21
160.39854904318298
  0
LINE
  8
_0-0_0
  6
CONTINUOUS
 62
    7
 10
242.03447414420936
 20
160.39854904318298
 11
241.03447414420936
 21
160.39854904318298
  0
LINE
  8
_0-0_0
  6
CONTINUOUS
 62
    7
 10
241.03447414420936
 20
177.53854904318297
 11
241.03447414420936
 21
199.27854904318298
  0
LINE
  8
_0-0_0
  6
CONTINUOUS
 62
    7
 10
161.03447414420936
 20
175.96854904318297
 11
242.03447414420936
 21
175.96854904318297
  0
LINE
  8
_0-0_0
  6
CONTINUOUS
 62
    7
 10
242.03447414420936
 20
215.96854904318297
 11
161.03447414420936
 21
215.96854904318297
  0
LINE
  8
_0-0_0
  6
CONTINUOUS
 62
    7
 10
175.23447414420934
 20
215.96854904318297
 11
175.23447414420934
 21
175.96854904318297
  0
LINE
  8
_0-0_0
  6
CONTINUOUS
 62
    7
 10
227.83447414420937
 20
215.96854904318297
 11
227.83447414420937
 21
175.96854904318297
  0
LINE
  8
_0-0_0
  6
CONTINUOUS
 62
    7
 10
161.03447414420936
 20
215.96854904318297
 11
161.03447414420936
 21
175.96854904318297
  0
LINE
  8
_0-0_0
  6
CONTINUOUS
 62
    7
 10
242.03447414420936
 20
215.96854904318297
 11
242.03447414420936
 21
175.96854904318297
  0
CIRCLE
  8
_0-0_0
  6
CONTINUOUS
 62
    7
 10
192.03447414420936
 20
181.96854904318297
 40
2
  0
CIRCLE
  8
_0-0_0
  6
CONTINUOUS
 62
    7
 10
201.03447414420936
 20
181.96854904318297
 40
2
  0
LINE
  8
_0-0_0
  6
CONTINUOUS
 62
    7
 10
215.86780714420937
 20
183.06195604318299
 11
215.86780714420937
 21
180.56195604318299
  0
LINE
  8
_0-0_0
  6
CONTINUOUS
 62
    7
 10
215.86780714420937
 20
180.31708404318297
 11
215.36780714420937
 21
181.81708404318297
  0
LINE
  8
_0-0_0
  6
CONTINUOUS
 62
    7
 10
215.86780714420937
 20
180.31708404318297
 11
216.36780714420937
 21
181.81708404318297
  0
LINE
  8
_0-0_0
  6
CONTINUOUS
 62
    7
 10
191.03447414420936
 20
206.07111304318298
 11
211.03447414420936
 21
206.07111304318298
  0
LINE
  8
_0-0_0
  6
CONTINUOUS
 62
    7
 10
211.03447414420936
 20
191.07111304318298
 11
191.03447414420936
 21
191.07111304318298
  0
LINE
  8
_0-0_0
  6
CONTINUOUS
 62
    7
 10
191.03447414420936
 20
191.07111304318298
 11
191.03447414420936
 21
206.07111304318298
  0
LINE
  8
_0-0_0
  6
CONTINUOUS
 62
    7
 10
211.03447414420936
 20
206.07111304318298
 11
211.03447414420936
 21
191.07111304318298
  0
LINE
  8
_0-0_0
  6
CONTINUOUS
 62
    7
 10
191.03447414420936
 20
203.07111304318298
 11
211.03447414420936
 21
203.07111304318298
  0
LINE
  8
_0-0_0
  6
CONTINUOUS
 62
    7
 10
191.03447414420936
 20
200.07111304318298
 11
211.03447414420936
 21
200.07111304318298
  0
LINE
  8
_0-0_0
  6
CONTINUOUS
 62
    7
 10
191.03447414420936
 20
197.07111304318298
 11
211.03447414420936
 21
197.07111304318298
  0
LINE
  8
_0-0_0
  6
CONTINUOUS
 62
    7
 10
191.03447414420936
 20
194.07111304318298
 11
211.03447414420936
 21
194.07111304318298
  0
LINE
  8
_0-0_0
  6
CONTINUOUS
 62
    7
 10
196.03447414420936
 20
206.07111304318298
 11
196.03447414420936
 21
191.07111304318298
  0
LINE
  8
_0-0_0
  6
CONTINUOUS
 62
    7
 10
201.03447414420936
 20
206.07111304318298
 11
201.03447414420936
 21
191.07111304318298
  0
LINE
  8
_0-0_0
  6
CONTINUOUS
 62
    7
 10
218.03447414420936
 20
207.95854904318298
 11
226.03447414420936
 21
207.95854904318298
  0
LINE
  8
_0-0_0
  6
CONTINUOUS
 62
    7
 10
218.03447414420936
 20
206.83854904318298
 11
226.03447414420936
 21
206.83854904318298
  0
LINE
  8
_0-0_0
  6
CONTINUOUS
 62
    7
 10
218.03447414420936
 20
200.33854904318298
 11
226.03447414420936
 21
200.33854904318298
  0
LINE
  8
_0-0_0
  6
CONTINUOUS
 62
    7
 10
226.03447414420936
 20
199.21854904318297
 11
218.03447414420936
 21
199.21854904318297
  0
LINE
  8
_0-0_0
  6
CONTINUOUS
 62
    7
 10
218.03447414420936
 20
192.71854904318297
 11
226.03447414420936
 21
192.71854904318297
  0
LINE
  8
_0-0_0
  6
CONTINUOUS
 62
    7
 10
218.03447414420936
 20
191.59854904318297
 11
226.03447414420936
 21
191.59854904318297
  0
LINE
  8
_0-0_0
  6
CONTINUOUS
 62
    7
 10
226.03447414420936
 20
185.09854904318297
 11
218.03447414420936
 21
185.09854904318297
  0
LINE
  8
_0-0_0
  6
CONTINUOUS
 62
    7
 10
226.03447414420936
 20
183.97854904318297
 11
218.03447414420936
 21
183.97854904318297
  0
LINE
  8
_0-0_0
  6
CONTINUOUS
 62
    7
 10
218.03447414420936
 20
177.47854904318297
 11
226.03447414420936
 21
177.47854904318297
  0
LINE
  8
_0-0_0
  6
CONTINUOUS
 62
    7
 10
218.03447414420936
 20
214.45854904318298
 11
226.03447414420936
 21
214.45854904318298
  0
LINE
  8
_0-0_0
  6
CONTINUOUS
 62
    7
 10
176.78447414420936
 20
214.45854904318298
 11
183.28447414420936
 21
214.45854904318298
  0
LINE
  8
_0-0_0
  6
CONTINUOUS
 62
    7
 10
176.78447414420936
 20
207.95854904318298
 11
183.28447414420936
 21
207.95854904318298
  0
LINE
  8
_0-0_0
  6
CONTINUOUS
 62
    7
 10
176.78447414420936
 20
206.83854904318298
 11
183.28447414420936
 21
206.83854904318298
  0
LINE
  8
_0-0_0
  6
CONTINUOUS
 62
    7
 10
176.78447414420936
 20
200.33854904318298
 11
183.28447414420936
 21
200.33854904318298
  0
LINE
  8
_0-0_0
  6
CONTINUOUS
 62
    7
 10
176.78447414420936
 20
199.21854904318297
 11
183.28447414420936
 21
199.21854904318297
  0
LINE
  8
_0-0_0
  6
CONTINUOUS
 62
    7
 10
176.78447414420936
 20
192.71854904318297
 11
183.28447414420936
 21
192.71854904318297
  0
LINE
  8
_0-0_0
  6
CONTINUOUS
 62
    7
 10
176.78447414420936
 20
191.59854904318297
 11
183.28447414420936
 21
191.59854904318297
  0
LINE
  8
_0-0_0
  6
CONTINUOUS
 62
    7
 10
176.78447414420936
 20
185.09854904318297
 11
183.28447414420936
 21
185.09854904318297
  0
LINE
  8
_0-0_0
  6
CONTINUOUS
 62
    7
 10
176.78447414420936
 20
183.97854904318297
 11
183.28447414420936
 21
183.97854904318297
  0
LINE
  8
_0-0_0
  6
CONTINUOUS
 62
    7
 10
176.78447414420936
 20
177.47854904318297
 11
183.28447414420936
 21
177.47854904318297
  0
LINE
  8
_0-0_0
  6
CONTINUOUS
 62
    7
 10
183.28447414420936
 20
214.45854904318298
 11
183.28447414420936
 21
207.95854904318298
  0
LINE
  8
_0-0_0
  6
CONTINUOUS
 62
    7
 10
183.28447414420936
 20
206.83854904318298
 11
183.28447414420936
 21
200.33854904318298
  0
LINE
  8
_0-0_0
  6
CONTINUOUS
 62
    7
 10
183.28447414420936
 20
199.21854904318297
 11
183.28447414420936
 21
192.71854904318297
  0
LINE
  8
_0-0_0
  6
CONTINUOUS
 62
    7
 10
183.28447414420936
 20
191.59854904318297
 11
183.28447414420936
 21
185.09854904318297
  0
LINE
  8
_0-0_0
  6
CONTINUOUS
 62
    7
 10
183.28447414420936
 20
183.97854904318297
 11
183.28447414420936
 21
177.47854904318297
  0
LINE
  8
_0-0_0
  6
CONTINUOUS
 62
    7
 10
176.78447414420936
 20
214.45854904318298
 11
176.78447414420936
 21
207.95854904318298
  0
LINE
  8
_0-0_0
  6
CONTINUOUS
 62
    7
 10
176.78447414420936
 20
206.83854904318298
 11
176.78447414420936
 21
200.33854904318298
  0
LINE
  8
_0-0_0
  6
CONTINUOUS
 62
    7
 10
176.78447414420936
 20
199.21854904318297
 11
176.78447414420936
 21
192.71854904318297
  0
LINE
  8
_0-0_0
  6
CONTINUOUS
 62
    7
 10
176.78447414420936
 20
191.59854904318297
 11
176.78447414420936
 21
185.09854904318297
  0
LINE
  8
_0-0_0
  6
CONTINUOUS
 62
    7
 10
176.78447414420936
 20
183.97854904318297
 11
176.78447414420936
 21
177.47854904318297
  0
LINE
  8
_0-0_0
  6
CONTINUOUS
 62
    7
 10
218.03447414420936
 20
214.45854904318298
 11
218.03447414420936
 21
207.95854904318298
  0
LINE
  8
_0-0_0
  6
CONTINUOUS
 62
    7
 10
218.03447414420936
 20
206.83854904318298
 11
218.03447414420936
 21
200.33854904318298
  0
LINE
  8
_0-0_0
  6
CONTINUOUS
 62
    7
 10
218.03447414420936
 20
199.21854904318297
 11
218.03447414420936
 21
192.71854904318297
  0
LINE
  8
_0-0_0
  6
CONTINUOUS
 62
    7
 10
218.03447414420936
 20
191.59854904318297
 11
218.03447414420936
 21
185.09854904318297
  0
LINE
  8
_0-0_0
  6
CONTINUOUS
 62
    7
 10
218.03447414420936
 20
183.97854904318297
 11
218.03447414420936
 21
177.47854904318297
  0
LINE
  8
_0-0_0
  6
CONTINUOUS
 62
    7
 10
226.03447414420936
 20
214.45854904318298
 11
226.03447414420936
 21
207.95854904318298
  0
LINE
  8
_0-0_0
  6
CONTINUOUS
 62
    7
 10
226.03447414420936
 20
206.83854904318298
 11
226.03447414420936
 21
200.33854904318298
  0
LINE
  8
_0-0_0
  6
CONTINUOUS
 62
    7
 10
226.03447414420936
 20
199.21854904318297
 11
226.03447414420936
 21
192.71854904318297
  0
LINE
  8
_0-0_0
  6
CONTINUOUS
 62
    7
 10
226.03447414420936
 20
191.59854904318297
 11
226.03447414420936
 21
185.09854904318297
  0
LINE
  8
_0-0_0
  6
CONTINUOUS
 62
    7
 10
226.03447414420936
 20
183.97854904318297
 11
226.03447414420936
 21
177.47854904318297
  0
LINE
  8
_0-0_0
  6
CONTINUOUS
 62
    7
 10
188.03447414420936
 20
177.51854904318299
 11
196.03447414420936
 21
177.51854904318299
  0
LINE
  8
_0-0_0
  6
CONTINUOUS
 62
    7
 10
188.03447414420936
 20
188.76449304318297
 11
188.03447414420936
 21
177.51854904318299
  0
LINE
  8
_0-0_0
  6
CONTINUOUS
 62
    7
 10
196.03447414420936
 20
177.51854904318299
 11
196.03447414420936
 21
188.76449304318297
  0
LINE
  8
_0-0_0
  6
CONTINUOUS
 62
    7
 10
197.03447414420936
 20
177.51854904318299
 11
205.03447414420936
 21
177.51854904318299
  0
LINE
  8
_0-0_0
  6
CONTINUOUS
 62
    7
 10
197.03447414420936
 20
188.76449304318297
 11
197.03447414420936
 21
177.51854904318299
  0
LINE
  8
_0-0_0
  6
CONTINUOUS
 62
    7
 10
205.03447414420936
 20
177.51854904318299
 11
205.03447414420936
 21
188.76449304318297
  0
LINE
  8
_0-0_0
  6
CONTINUOUS
 62
    7
 10
206.03447414420936
 20
184.38887904318298
 11
214.03447414420936
 21
184.38887904318298
  0
LINE
  8
_0-0_0
  6
CONTINUOUS
 62
    7
 10
206.03447414420936
 20
188.71296704318297
 11
206.03447414420936
 21
184.38887904318298
  0
LINE
  8
_0-0_0
  6
CONTINUOUS
 62
    7
 10
214.03447414420936
 20
184.38887904318298
 11
214.03447414420936
 21
188.71296704318297
  0
LINE
  8
_0-0_0
  6
CONTINUOUS
 62
    7
 10
206.03447414420936
 20
177.51854904318299
 11
209.53447414420936
 21
177.51854904318299
  0
LINE
  8
_0-0_0
  6
CONTINUOUS
 62
    7
 10
209.53447414420936
 20
183.51854904318299
 11
206.03447414420936
 21
183.51854904318299
  0
LINE
  8
_0-0_0
  6
CONTINUOUS
 62
    7
 10
206.03447414420936
 20
183.51854904318299
 11
206.03447414420936
 21
177.51854904318299
  0
LINE
  8
_0-0_0
  6
CONTINUOUS
 62
    7
 10
209.53447414420936
 20
177.51854904318299
 11
209.53447414420936
 21
183.51854904318299
  0
LINE
  8
_0-0_0
  6
CONTINUOUS
 62
    7
 10
210.53447414420936
 20
177.51854904318299
 11
214.03447414420936
 21
177.51854904318299
  0
LINE
  8
_0-0_0
  6
CONTINUOUS
 62
    7
 10
214.03447414420936
 20
183.51854904318299
 11
210.53447414420936
 21
183.51854904318299
  0
LINE
  8
_0-0_0
  6
CONTINUOUS
 62
    7
 10
210.53447414420936
 20
183.51854904318299
 11
210.53447414420936
 21
177.51854904318299
  0
LINE
  8
_0-0_0
  6
CONTINUOUS
 62
    7
 10
214.03447414420936
 20
177.51854904318299
 11
214.03447414420936
 21
183.51854904318299
  0
LINE
  8
_0-0_0
  6
CONTINUOUS
 62
    7
 10
196.03447414420936
 20
188.76449304318297
 11
188.03447414420936
 21
188.76449304318297
  0
LINE
  8
_0-0_0
  6
CONTINUOUS
 62
    7
 10
205.03447414420936
 20
188.76449304318297
 11
197.03447414420936
 21
188.76449304318297
  0
LINE
  8
_0-0_0
  6
CONTINUOUS
 62
    7
 10
214.03447414420936
 20
188.71296704318297
 11
206.03447414420936
 21
188.71296704318297
  0
TEXT
  8
_0-0_0
 62
    7
 10
219.23447414420934
 20
194.21854904318297
 40
3.5
 41
0.4
 50
0
  1
+12V
  0
TEXT
  8
_0-0_0
 62
    7
 10
219.40947414420936
 20
186.59854904318297
 40
3.5
 41
0.5
 50
0
  1
GND
  0
TEXT
  8
_0-0_0
 62
    7
 10
219.40947414420936
 20
178.97854904318297
 40
3.5
 41
0.5
 50
0
  1
GND
  0
TEXT
  8
_0-0_0
 62
    7
 10
195.43447414420936
 20
211.14266404318298
 40
3.2000000000000002
 41
0.5
 50
0
  1
STA-12G
  0
TEXT
  8
_0-0_0
 62
    7
 10
188.23447414420934
 20
207.14266404318298
 40
3.2000000000000002
 41
1
 50
0
  1
歪みゲージ変換器
  0
TEXT
  8
_0-0_0
 62
    7
 10
189.03447414420936
 20
185.18857304318297
 40
3
 41
0.5
 50
0
  1
ZERO
  0
TEXT
  8
_0-0_0
 62
    7
 10
198.03447414420936
 20
185.18857304318297
 40
3
 41
0.5
 50
0
  1
SPAN
  0
TEXT
  8
_0-0_0
 62
    7
 10
219.40947414420936
 20
201.83854904318298
 40
3.5
 41
0.5
 50
0
  1
GND
  0
TEXT
  8
_0-0_0
 62
    7
 10
219.40947414420936
 20
209.45854904318298
 40
3.5
 41
0.5
 50
0
  1
OUT
  0
TEXT
  8
_0-0_0
 62
    7
 10
207.27379014420936
 20
185.18857304318297
 40
3
 41
0.5
 50
0
  1
GAIN
  0
TEXT
  8
_0-0_0
 62
    7
 10
214.61780714420937
 20
177.81195604318299
 40
2.5
 41
0.5
 50
0
  1
ON
  0
TEXT
  8
_0-0_0
 62
    7
 10
192.90947414420936
 20
203.32111304318298
 40
2.5
 41
0.5
 50
0
  1
1
  0
TEXT
  8
_0-0_0
 62
    7
 10
197.90947414420936
 20
203.32111304318298
 40
2.5
 41
0.5
 50
0
  1
2
  0
TEXT
  8
_0-0_0
 62
    7
 10
191.65947414420936
 20
200.32111304318298
 40
2.5
 41
0.5
 50
0
  1
OFF
  0
TEXT
  8
_0-0_0
 62
    7
 10
192.28447414420936
 20
197.32111304318298
 40
2.5
 41
0.5
 50
0
  1
ON
  0
TEXT
  8
_0-0_0
 62
    7
 10
196.65947414420936
 20
200.32111304318298
 40
2.5
 41
0.5
 50
0
  1
OFF
  0
TEXT
  8
_0-0_0
 62
    7
 10
196.65947414420936
 20
197.32111304318298
 40
2.5
 41
0.5
 50
0
  1
OFF
  0
TEXT
  8
_0-0_0
 62
    7
 10
191.65947414420936
 20
194.32111304318298
 40
2.5
 41
0.5
 50
0
  1
OFF
  0
TEXT
  8
_0-0_0
 62
    7
 10
197.28447414420936
 20
194.32111304318298
 40
2.5
 41
0.5
 50
0
  1
ON
  0
TEXT
  8
_0-0_0
 62
    7
 10
192.28447414420936
 20
191.32111304318298
 40
2.5
 41
0.5
 50
0
  1
ON
  0
TEXT
  8
_0-0_0
 62
    7
 10
197.28447414420936
 20
191.32111304318298
 40
2.5
 41
0.5
 50
0
  1
ON
  0
TEXT
  8
_0-0_0
 62
    7
 10
203.53447414420936
 20
203.32111304318298
 40
2.5
 41
0.5
 50
0
  1
GAIN
  0
TEXT
  8
_0-0_0
 62
    7
 10
204.15947414420936
 20
200.32111304318298
 40
2.5
 41
0.5
 50
0
  1
200
  0
TEXT
  8
_0-0_0
 62
    7
 10
204.15947414420936
 20
197.32111304318298
 40
2.5
 41
0.5
 50
0
  1
400
  0
TEXT
  8
_0-0_0
 62
    7
 10
204.15947414420936
 20
194.32111304318298
 40
2.5
 41
0.5
 50
0
  1
800
  0
TEXT
  8
_0-0_0
 62
    7
 10
203.53447414420936
 20
191.32111304318298
 40
2.5
 41
0.5
 50
0
  1
1600
  0
TEXT
  8
_0-0_0
 62
    7
 10
207.27379014420936
 20
178.96854904318297
 40
3
 41
0.5
 50
0
  1
1
  0
TEXT
  8
_0-0_0
 62
    7
 10
211.77379014420936
 20
178.96854904318297
 40
3
 41
0.5
 50
0
  1
2
  0
TEXT
  8
_0-0_0
 62
    7
 10
179.19256014420935
 20
194.21854904318297
 40
3.5
 41
0.4
 50
0
  1
B'
  0
TEXT
  8
_0-0_0
 62
    7
 10
179.15947414420936
 20
186.59854904318297
 40
3.5
 41
0.5
 50
0
  1
C
  0
TEXT
  8
_0-0_0
 62
    7
 10
179.15947414420936
 20
178.97854904318297
 40
3.5
 41
0.5
 50
0
  1
E
  0
TEXT
  8
_0-0_0
 62
    7
 10
179.15947414420936
 20
201.83854904318298
 40
3.5
 41
0.5
 50
0
  1
B
  0
TEXT
  8
_0-0_0
 62
    7
 10
179.15947414420936
 20
209.45854904318298
 40
3.5
 41
0.5
 50
0
  1
A
  0
LINE
  8
_0-0_0
  6
CONTINUOUS
 62
    7
 10
176.03447414420936
 20
214.96854904318297
 11
227.03447414420936
 21
214.96854904318297
  0
LINE
  8
_0-0_0
  6
CONTINUOUS
 62
    7
 10
227.03447414420936
 20
176.96854904318297
 11
176.03447414420936
 21
176.96854904318297
  0
LINE
  8
_0-0_0
  6
CONTINUOUS
 62
    7
 10
176.03447414420936
 20
176.96854904318297
 11
176.03447414420936
 21
214.96854904318297
  0
LINE
  8
_0-0_0
  6
CONTINUOUS
 62
    7
 10
227.03447414420936
 20
214.96854904318297
 11
227.03447414420936
 21
176.96854904318297
  0
CIRCLE
  8
_0-0_0
  6
CONTINUOUS
 62
    7
 10
192.03447414420936
 20
181.96854904318297
 40
0.8
  0
CIRCLE
  8
_0-0_0
  6
CONTINUOUS
 62
    7
 10
201.03447414420936
 20
181.96854904318297
 40
0.8
  0
LINE
  8
_0-0_0
  6
CONTINUOUS
 62
    7
 10
161.03447414420936
 20
178.91854904318296
 11
162.03447414420936
 21
178.91854904318296
  0
LINE
  8
_0-0_0
  6
CONTINUOUS
 62
    7
 10
161.03447414420936
 20
177.41854904318296
 11
175.03447414420936
 21
177.41854904318296
  0
LINE
  8
_0-0_0
  6
CONTINUOUS
 62
    7
 10
175.03447414420936
 20
178.91854904318296
 11
174.03447414420936
 21
178.91854904318296
  0
LINE
  8
_0-0_0
  6
CONTINUOUS
 62
    7
 10
167.53447414420936
 20
182.22854904318297
 11
167.53447414420936
 21
181.22854904318297
  0
LINE
  8
_0-0_0
  6
CONTINUOUS
 62
    7
 10
167.53447414420936
 20
181.22854904318297
 11
166.53447414420936
 21
181.22854904318297
  0
LINE
  8
_0-0_0
  6
CONTINUOUS
 62
    7
 10
166.53447414420936
 20
180.22854904318297
 11
167.53447414420936
 21
180.22854904318297
  0
LINE
  8
_0-0_0
  6
CONTINUOUS
 62
    7
 10
167.53447414420936
 20
180.22854904318297
 11
167.53447414420936
 21
179.22854904318297
  0
LINE
  8
_0-0_0
  6
CONTINUOUS
 62
    7
 10
168.53447414420936
 20
182.22854904318297
 11
168.53447414420936
 21
181.22854904318297
  0
LINE
  8
_0-0_0
  6
CONTINUOUS
 62
    7
 10
168.53447414420936
 20
181.22854904318297
 11
169.53447414420936
 21
181.22854904318297
  0
LINE
  8
_0-0_0
  6
CONTINUOUS
 62
    7
 10
169.53447414420936
 20
180.22854904318297
 11
168.53447414420936
 21
180.22854904318297
  0
LINE
  8
_0-0_0
  6
CONTINUOUS
 62
    7
 10
168.53447414420936
 20
180.22854904318297
 11
168.53447414420936
 21
179.22854904318297
  0
CIRCLE
  8
_0-0_0
  6
CONTINUOUS
 62
    7
 10
168.03447414420936
 20
180.72854904318297
 40
2.5
  0
LINE
  8
_0-0_0
  6
CONTINUOUS
 62
    7
 10
161.03447414420936
 20
182.53854904318297
 11
162.03447414420936
 21
182.53854904318297
  0
LINE
  8
_0-0_0
  6
CONTINUOUS
 62
    7
 10
161.03447414420936
 20
194.15854904318297
 11
162.03447414420936
 21
194.15854904318297
  0
LINE
  8
_0-0_0
  6
CONTINUOUS
 62
    7
 10
161.03447414420936
 20
192.65854904318297
 11
175.03447414420936
 21
192.65854904318297
  0
LINE
  8
_0-0_0
  6
CONTINUOUS
 62
    7
 10
161.03447414420936
 20
184.03854904318297
 11
175.03447414420936
 21
184.03854904318297
  0
LINE
  8
_0-0_0
  6
CONTINUOUS
 62
    7
 10
161.03447414420936
 20
194.15854904318297
 11
161.03447414420936
 21
190.15854904318297
  0
LINE
  8
_0-0_0
  6
CONTINUOUS
 62
    7
 10
175.03447414420936
 20
182.53854904318297
 11
174.03447414420936
 21
182.53854904318297
  0
LINE
  8
_0-0_0
  6
CONTINUOUS
 62
    7
 10
175.03447414420936
 20
194.15854904318297
 11
174.03447414420936
 21
194.15854904318297
  0
LINE
  8
_0-0_0
  6
CONTINUOUS
 62
    7
 10
175.03447414420936
 20
194.15854904318297
 11
175.03447414420936
 21
190.15854904318297
  0
LINE
  8
_0-0_0
  6
CONTINUOUS
 62
    7
 10
162.03447414420936
 20
184.03854904318297
 11
162.03447414420936
 21
177.41854904318296
  0
LINE
  8
_0-0_0
  6
CONTINUOUS
 62
    7
 10
163.53447414420936
 20
184.03854904318297
 11
163.53447414420936
 21
177.41854904318296
  0
LINE
  8
_0-0_0
  6
CONTINUOUS
 62
    7
 10
172.53447414420936
 20
184.03854904318297
 11
172.53447414420936
 21
177.41854904318296
  0
LINE
  8
_0-0_0
  6
CONTINUOUS
 62
    7
 10
174.03447414420936
 20
184.03854904318297
 11
174.03447414420936
 21
177.41854904318296
  0
LINE
  8
_0-0_0
  6
CONTINUOUS
 62
    7
 10
167.53447414420936
 20
197.46854904318297
 11
167.53447414420936
 21
196.46854904318297
  0
LINE
  8
_0-0_0
  6
CONTINUOUS
 62
    7
 10
167.53447414420936
 20
196.46854904318297
 11
166.53447414420936
 21
196.46854904318297
  0
LINE
  8
_0-0_0
  6
CONTINUOUS
 62
    7
 10
166.53447414420936
 20
195.46854904318297
 11
167.53447414420936
 21
195.46854904318297
  0
LINE
  8
_0-0_0
  6
CONTINUOUS
 62
    7
 10
167.53447414420936
 20
195.46854904318297
 11
167.53447414420936
 21
194.46854904318297
  0
LINE
  8
_0-0_0
  6
CONTINUOUS
 62
    7
 10
168.53447414420936
 20
197.46854904318297
 11
168.53447414420936
 21
196.46854904318297
  0
LINE
  8
_0-0_0
  6
CONTINUOUS
 62
    7
 10
168.53447414420936
 20
196.46854904318297
 11
169.53447414420936
 21
196.46854904318297
  0
LINE
  8
_0-0_0
  6
CONTINUOUS
 62
    7
 10
169.53447414420936
 20
195.46854904318297
 11
168.53447414420936
 21
195.46854904318297
  0
LINE
  8
_0-0_0
  6
CONTINUOUS
 62
    7
 10
168.53447414420936
 20
195.46854904318297
 11
168.53447414420936
 21
194.46854904318297
  0
CIRCLE
  8
_0-0_0
  6
CONTINUOUS
 62
    7
 10
168.03447414420936
 20
195.96854904318297
 40
2.5
  0
LINE
  8
_0-0_0
  6
CONTINUOUS
 62
    7
 10
161.03447414420936
 20
213.01854904318299
 11
162.03447414420936
 21
213.01854904318299
  0
LINE
  8
_0-0_0
  6
CONTINUOUS
 62
    7
 10
161.03447414420936
 20
215.76854904318299
 11
161.03447414420936
 21
213.01854904318299
  0
LINE
  8
_0-0_0
  6
CONTINUOUS
 62
    7
 10
175.03447414420936
 20
213.01854904318299
 11
174.03447414420936
 21
213.01854904318299
  0
LINE
  8
_0-0_0
  6
CONTINUOUS
 62
    7
 10
175.03447414420936
 20
215.76854904318299
 11
175.03447414420936
 21
213.01854904318299
  0
LINE
  8
_0-0_0
  6
CONTINUOUS
 62
    7
 10
162.03447414420936
 20
199.27854904318298
 11
162.03447414420936
 21
192.65854904318297
  0
LINE
  8
_0-0_0
  6
CONTINUOUS
 62
    7
 10
163.53447414420936
 20
199.27854904318298
 11
163.53447414420936
 21
192.65854904318297
  0
LINE
  8
_0-0_0
  6
CONTINUOUS
 62
    7
 10
172.53447414420936
 20
199.27854904318298
 11
172.53447414420936
 21
192.65854904318297
  0
LINE
  8
_0-0_0
  6
CONTINUOUS
 62
    7
 10
174.03447414420936
 20
199.27854904318298
 11
174.03447414420936
 21
192.65854904318297
  0
LINE
  8
_0-0_0
  6
CONTINUOUS
 62
    7
 10
161.03447414420936
 20
214.51854904318299
 11
175.03447414420936
 21
214.51854904318299
  0
LINE
  8
_0-0_0
  6
CONTINUOUS
 62
    7
 10
161.03447414420936
 20
215.76854904318299
 11
175.03447414420936
 21
215.76854904318299
  0
LINE
  8
_0-0_0
  6
CONTINUOUS
 62
    7
 10
161.03447414420936
 20
178.91854904318296
 11
161.03447414420936
 21
176.16854904318296
  0
LINE
  8
_0-0_0
  6
CONTINUOUS
 62
    7
 10
175.03447414420936
 20
178.91854904318296
 11
175.03447414420936
 21
176.16854904318296
  0
CIRCLE
  8
_0-0_0
  6
CONTINUOUS
 62
    7
 10
168.03447414420936
 20
195.96854904318297
 40
0.5999999999999999
  0
CIRCLE
  8
_0-0_0
  6
CONTINUOUS
 62
    7
 10
168.03447414420936
 20
195.96854904318297
 40
0.2999999999999999
  0
LINE
  8
_0-0_0
  6
CONTINUOUS
 62
    7
 10
175.03447414420936
 20
176.16854904318296
 11
161.03447414420936
 21
176.16854904318296
  0
LINE
  8
_0-0_0
  6
CONTINUOUS
 62
    7
 10
167.53447414420936
 20
189.84854904318297
 11
167.53447414420936
 21
188.84854904318297
  0
LINE
  8
_0-0_0
  6
CONTINUOUS
 62
    7
 10
167.53447414420936
 20
188.84854904318297
 11
166.53447414420936
 21
188.84854904318297
  0
LINE
  8
_0-0_0
  6
CONTINUOUS
 62
    7
 10
166.53447414420936
 20
187.84854904318297
 11
167.53447414420936
 21
187.84854904318297
  0
LINE
  8
_0-0_0
  6
CONTINUOUS
 62
    7
 10
167.53447414420936
 20
187.84854904318297
 11
167.53447414420936
 21
186.84854904318297
  0
LINE
  8
_0-0_0
  6
CONTINUOUS
 62
    7
 10
168.53447414420936
 20
189.84854904318297
 11
168.53447414420936
 21
188.84854904318297
  0
LINE
  8
_0-0_0
  6
CONTINUOUS
 62
    7
 10
168.53447414420936
 20
188.84854904318297
 11
169.53447414420936
 21
188.84854904318297
  0
LINE
  8
_0-0_0
  6
CONTINUOUS
 62
    7
 10
169.53447414420936
 20
187.84854904318297
 11
168.53447414420936
 21
187.84854904318297
  0
LINE
  8
_0-0_0
  6
CONTINUOUS
 62
    7
 10
168.53447414420936
 20
187.84854904318297
 11
168.53447414420936
 21
186.84854904318297
  0
CIRCLE
  8
_0-0_0
  6
CONTINUOUS
 62
    7
 10
168.03447414420936
 20
188.34854904318297
 40
2.5
  0
LINE
  8
_0-0_0
  6
CONTINUOUS
 62
    7
 10
162.03447414420936
 20
191.65854904318297
 11
162.03447414420936
 21
185.03854904318297
  0
LINE
  8
_0-0_0
  6
CONTINUOUS
 62
    7
 10
163.53447414420936
 20
191.65854904318297
 11
163.53447414420936
 21
185.03854904318297
  0
LINE
  8
_0-0_0
  6
CONTINUOUS
 62
    7
 10
172.53447414420936
 20
191.65854904318297
 11
172.53447414420936
 21
185.03854904318297
  0
LINE
  8
_0-0_0
  6
CONTINUOUS
 62
    7
 10
174.03447414420936
 20
191.65854904318297
 11
174.03447414420936
 21
185.03854904318297
  0
LINE
  8
_0-0_0
  6
CONTINUOUS
 62
    7
 10
161.03447414420936
 20
191.65854904318297
 11
175.03447414420936
 21
191.65854904318297
  0
LINE
  8
_0-0_0
  6
CONTINUOUS
 62
    7
 10
161.03447414420936
 20
185.03854904318297
 11
175.03447414420936
 21
185.03854904318297
  0
LINE
  8
_0-0_0
  6
CONTINUOUS
 62
    7
 10
161.03447414420936
 20
190.15854904318297
 11
162.03447414420936
 21
190.15854904318297
  0
LINE
  8
_0-0_0
  6
CONTINUOUS
 62
    7
 10
175.03447414420936
 20
190.15854904318297
 11
174.03447414420936
 21
190.15854904318297
  0
LINE
  8
_0-0_0
  6
CONTINUOUS
 62
    7
 10
161.03447414420936
 20
186.53854904318297
 11
162.03447414420936
 21
186.53854904318297
  0
LINE
  8
_0-0_0
  6
CONTINUOUS
 62
    7
 10
175.03447414420936
 20
186.53854904318297
 11
174.03447414420936
 21
186.53854904318297
  0
LINE
  8
_0-0_0
  6
CONTINUOUS
 62
    7
 10
161.03447414420936
 20
186.53854904318297
 11
161.03447414420936
 21
182.53854904318297
  0
LINE
  8
_0-0_0
  6
CONTINUOUS
 62
    7
 10
175.03447414420936
 20
186.53854904318297
 11
175.03447414420936
 21
182.53854904318297
  0
LINE
  8
_0-0_0
  6
CONTINUOUS
 62
    7
 10
161.03447414420936
 20
201.77854904318298
 11
162.03447414420936
 21
201.77854904318298
  0
LINE
  8
_0-0_0
  6
CONTINUOUS
 62
    7
 10
161.03447414420936
 20
201.77854904318298
 11
161.03447414420936
 21
197.77854904318298
  0
LINE
  8
_0-0_0
  6
CONTINUOUS
 62
    7
 10
162.03447414420936
 20
206.89854904318298
 11
162.03447414420936
 21
200.27854904318298
  0
LINE
  8
_0-0_0
  6
CONTINUOUS
 62
    7
 10
163.53447414420936
 20
206.89854904318298
 11
163.53447414420936
 21
200.27854904318298
  0
LINE
  8
_0-0_0
  6
CONTINUOUS
 62
    7
 10
161.03447414420936
 20
197.77854904318298
 11
162.03447414420936
 21
197.77854904318298
  0
LINE
  8
_0-0_0
  6
CONTINUOUS
 62
    7
 10
175.03447414420936
 20
201.77854904318298
 11
174.03447414420936
 21
201.77854904318298
  0
LINE
  8
_0-0_0
  6
CONTINUOUS
 62
    7
 10
175.03447414420936
 20
201.77854904318298
 11
175.03447414420936
 21
197.77854904318298
  0
LINE
  8
_0-0_0
  6
CONTINUOUS
 62
    7
 10
172.53447414420936
 20
206.89854904318298
 11
172.53447414420936
 21
200.27854904318298
  0
LINE
  8
_0-0_0
  6
CONTINUOUS
 62
    7
 10
174.03447414420936
 20
206.89854904318298
 11
174.03447414420936
 21
200.27854904318298
  0
LINE
  8
_0-0_0
  6
CONTINUOUS
 62
    7
 10
175.03447414420936
 20
197.77854904318298
 11
174.03447414420936
 21
197.77854904318298
  0
LINE
  8
_0-0_0
  6
CONTINUOUS
 62
    7
 10
161.03447414420936
 20
200.27854904318298
 11
175.03447414420936
 21
200.27854904318298
  0
LINE
  8
_0-0_0
  6
CONTINUOUS
 62
    7
 10
161.03447414420936
 20
199.27854904318298
 11
175.03447414420936
 21
199.27854904318298
  0
LINE
  8
_0-0_0
  6
CONTINUOUS
 62
    7
 10
167.53447414420936
 20
205.08854904318298
 11
167.53447414420936
 21
204.08854904318298
  0
LINE
  8
_0-0_0
  6
CONTINUOUS
 62
    7
 10
167.53447414420936
 20
204.08854904318298
 11
166.53447414420936
 21
204.08854904318298
  0
LINE
  8
_0-0_0
  6
CONTINUOUS
 62
    7
 10
166.53447414420936
 20
203.08854904318298
 11
167.53447414420936
 21
203.08854904318298
  0
LINE
  8
_0-0_0
  6
CONTINUOUS
 62
    7
 10
167.53447414420936
 20
203.08854904318298
 11
167.53447414420936
 21
202.08854904318298
  0
LINE
  8
_0-0_0
  6
CONTINUOUS
 62
    7
 10
168.53447414420936
 20
205.08854904318298
 11
168.53447414420936
 21
204.08854904318298
  0
LINE
  8
_0-0_0
  6
CONTINUOUS
 62
    7
 10
168.53447414420936
 20
204.08854904318298
 11
169.53447414420936
 21
204.08854904318298
  0
LINE
  8
_0-0_0
  6
CONTINUOUS
 62
    7
 10
169.53447414420936
 20
203.08854904318298
 11
168.53447414420936
 21
203.08854904318298
  0
LINE
  8
_0-0_0
  6
CONTINUOUS
 62
    7
 10
168.53447414420936
 20
203.08854904318298
 11
168.53447414420936
 21
202.08854904318298
  0
CIRCLE
  8
_0-0_0
  6
CONTINUOUS
 62
    7
 10
168.03447414420936
 20
203.58854904318298
 40
2.5
  0
LINE
  8
_0-0_0
  6
CONTINUOUS
 62
    7
 10
161.03447414420936
 20
209.39854904318298
 11
162.03447414420936
 21
209.39854904318298
  0
LINE
  8
_0-0_0
  6
CONTINUOUS
 62
    7
 10
162.03447414420936
 20
214.51854904318299
 11
162.03447414420936
 21
207.89854904318298
  0
LINE
  8
_0-0_0
  6
CONTINUOUS
 62
    7
 10
163.53447414420936
 20
214.51854904318299
 11
163.53447414420936
 21
207.89854904318298
  0
LINE
  8
_0-0_0
  6
CONTINUOUS
 62
    7
 10
175.03447414420936
 20
209.39854904318298
 11
174.03447414420936
 21
209.39854904318298
  0
LINE
  8
_0-0_0
  6
CONTINUOUS
 62
    7
 10
172.53447414420936
 20
214.51854904318299
 11
172.53447414420936
 21
207.89854904318298
  0
LINE
  8
_0-0_0
  6
CONTINUOUS
 62
    7
 10
174.03447414420936
 20
214.51854904318299
 11
174.03447414420936
 21
207.89854904318298
  0
LINE
  8
_0-0_0
  6
CONTINUOUS
 62
    7
 10
161.03447414420936
 20
207.89854904318298
 11
175.03447414420936
 21
207.89854904318298
  0
LINE
  8
_0-0_0
  6
CONTINUOUS
 62
    7
 10
161.03447414420936
 20
206.89854904318298
 11
175.03447414420936
 21
206.89854904318298
  0
LINE
  8
_0-0_0
  6
CONTINUOUS
 62
    7
 10
167.53447414420936
 20
212.70854904318298
 11
167.53447414420936
 21
211.70854904318298
  0
LINE
  8
_0-0_0
  6
CONTINUOUS
 62
    7
 10
167.53447414420936
 20
211.70854904318298
 11
166.53447414420936
 21
211.70854904318298
  0
LINE
  8
_0-0_0
  6
CONTINUOUS
 62
    7
 10
166.53447414420936
 20
210.70854904318298
 11
167.53447414420936
 21
210.70854904318298
  0
LINE
  8
_0-0_0
  6
CONTINUOUS
 62
    7
 10
167.53447414420936
 20
210.70854904318298
 11
167.53447414420936
 21
209.70854904318298
  0
LINE
  8
_0-0_0
  6
CONTINUOUS
 62
    7
 10
168.53447414420936
 20
212.70854904318298
 11
168.53447414420936
 21
211.70854904318298
  0
LINE
  8
_0-0_0
  6
CONTINUOUS
 62
    7
 10
168.53447414420936
 20
211.70854904318298
 11
169.53447414420936
 21
211.70854904318298
  0
LINE
  8
_0-0_0
  6
CONTINUOUS
 62
    7
 10
169.53447414420936
 20
210.70854904318298
 11
168.53447414420936
 21
210.70854904318298
  0
LINE
  8
_0-0_0
  6
CONTINUOUS
 62
    7
 10
168.53447414420936
 20
210.70854904318298
 11
168.53447414420936
 21
209.70854904318298
  0
CIRCLE
  8
_0-0_0
  6
CONTINUOUS
 62
    7
 10
168.03447414420936
 20
211.20854904318298
 40
2.5
  0
LINE
  8
_0-0_0
  6
CONTINUOUS
 62
    7
 10
161.03447414420936
 20
209.39854904318298
 11
161.03447414420936
 21
205.39854904318298
  0
LINE
  8
_0-0_0
  6
CONTINUOUS
 62
    7
 10
175.03447414420936
 20
209.39854904318298
 11
175.03447414420936
 21
205.39854904318298
  0
LINE
  8
_0-0_0
  6
CONTINUOUS
 62
    7
 10
161.03447414420936
 20
205.39854904318298
 11
162.03447414420936
 21
205.39854904318298
  0
LINE
  8
_0-0_0
  6
CONTINUOUS
 62
    7
 10
175.03447414420936
 20
205.39854904318298
 11
174.03447414420936
 21
205.39854904318298
  0
LINE
  8
_0-0_0
  6
CONTINUOUS
 62
    7
 10
228.03447414420936
 20
178.91854904318296
 11
229.03447414420936
 21
178.91854904318296
  0
LINE
  8
_0-0_0
  6
CONTINUOUS
 62
    7
 10
228.03447414420936
 20
177.41854904318296
 11
242.03447414420936
 21
177.41854904318296
  0
LINE
  8
_0-0_0
  6
CONTINUOUS
 62
    7
 10
242.03447414420936
 20
178.91854904318296
 11
241.03447414420936
 21
178.91854904318296
  0
LINE
  8
_0-0_0
  6
CONTINUOUS
 62
    7
 10
234.53447414420936
 20
182.22854904318297
 11
234.53447414420936
 21
181.22854904318297
  0
LINE
  8
_0-0_0
  6
CONTINUOUS
 62
    7
 10
234.53447414420936
 20
181.22854904318297
 11
233.53447414420936
 21
181.22854904318297
  0
LINE
  8
_0-0_0
  6
CONTINUOUS
 62
    7
 10
233.53447414420936
 20
180.22854904318297
 11
234.53447414420936
 21
180.22854904318297
  0
LINE
  8
_0-0_0
  6
CONTINUOUS
 62
    7
 10
234.53447414420936
 20
180.22854904318297
 11
234.53447414420936
 21
179.22854904318297
  0
LINE
  8
_0-0_0
  6
CONTINUOUS
 62
    7
 10
235.53447414420936
 20
182.22854904318297
 11
235.53447414420936
 21
181.22854904318297
  0
LINE
  8
_0-0_0
  6
CONTINUOUS
 62
    7
 10
235.53447414420936
 20
181.22854904318297
 11
236.53447414420936
 21
181.22854904318297
  0
LINE
  8
_0-0_0
  6
CONTINUOUS
 62
    7
 10
236.53447414420936
 20
180.22854904318297
 11
235.53447414420936
 21
180.22854904318297
  0
LINE
  8
_0-0_0
  6
CONTINUOUS
 62
    7
 10
235.53447414420936
 20
180.22854904318297
 11
235.53447414420936
 21
179.22854904318297
  0
CIRCLE
  8
_0-0_0
  6
CONTINUOUS
 62
    7
 10
235.03447414420936
 20
180.72854904318297
 40
2.5
  0
LINE
  8
_0-0_0
  6
CONTINUOUS
 62
    7
 10
228.03447414420936
 20
182.53854904318297
 11
229.03447414420936
 21
182.53854904318297
  0
LINE
  8
_0-0_0
  6
CONTINUOUS
 62
    7
 10
228.03447414420936
 20
194.15854904318297
 11
229.03447414420936
 21
194.15854904318297
  0
LINE
  8
_0-0_0
  6
CONTINUOUS
 62
    7
 10
228.03447414420936
 20
192.65854904318297
 11
242.03447414420936
 21
192.65854904318297
  0
LINE
  8
_0-0_0
  6
CONTINUOUS
 62
    7
 10
228.03447414420936
 20
184.03854904318297
 11
242.03447414420936
 21
184.03854904318297
  0
LINE
  8
_0-0_0
  6
CONTINUOUS
 62
    7
 10
228.03447414420936
 20
194.15854904318297
 11
228.03447414420936
 21
190.15854904318297
  0
LINE
  8
_0-0_0
  6
CONTINUOUS
 62
    7
 10
242.03447414420936
 20
182.53854904318297
 11
241.03447414420936
 21
182.53854904318297
  0
LINE
  8
_0-0_0
  6
CONTINUOUS
 62
    7
 10
242.03447414420936
 20
194.15854904318297
 11
241.03447414420936
 21
194.15854904318297
  0
LINE
  8
_0-0_0
  6
CONTINUOUS
 62
    7
 10
242.03447414420936
 20
194.15854904318297
 11
242.03447414420936
 21
190.15854904318297
  0
LINE
  8
_0-0_0
  6
CONTINUOUS
 62
    7
 10
229.03447414420936
 20
184.03854904318297
 11
229.03447414420936
 21
177.41854904318296
  0
LINE
  8
_0-0_0
  6
CONTINUOUS
 62
    7
 10
230.53447414420936
 20
184.03854904318297
 11
230.53447414420936
 21
177.41854904318296
  0
LINE
  8
_0-0_0
  6
CONTINUOUS
 62
    7
 10
239.53447414420936
 20
184.03854904318297
 11
239.53447414420936
 21
177.41854904318296
  0
LINE
  8
_0-0_0
  6
CONTINUOUS
 62
    7
 10
241.03447414420936
 20
184.03854904318297
 11
241.03447414420936
 21
177.41854904318296
  0
LINE
  8
_0-0_0
  6
CONTINUOUS
 62
    7
 10
234.53447414420936
 20
197.46854904318297
 11
234.53447414420936
 21
196.46854904318297
  0
LINE
  8
_0-0_0
  6
CONTINUOUS
 62
    7
 10
234.53447414420936
 20
196.46854904318297
 11
233.53447414420936
 21
196.46854904318297
  0
LINE
  8
_0-0_0
  6
CONTINUOUS
 62
    7
 10
233.53447414420936
 20
195.46854904318297
 11
234.53447414420936
 21
195.46854904318297
  0
LINE
  8
_0-0_0
  6
CONTINUOUS
 62
    7
 10
234.53447414420936
 20
195.46854904318297
 11
234.53447414420936
 21
194.46854904318297
  0
LINE
  8
_0-0_0
  6
CONTINUOUS
 62
    7
 10
235.53447414420936
 20
197.46854904318297
 11
235.53447414420936
 21
196.46854904318297
  0
LINE
  8
_0-0_0
  6
CONTINUOUS
 62
    7
 10
235.53447414420936
 20
196.46854904318297
 11
236.53447414420936
 21
196.46854904318297
  0
LINE
  8
_0-0_0
  6
CONTINUOUS
 62
    7
 10
236.53447414420936
 20
195.46854904318297
 11
235.53447414420936
 21
195.46854904318297
  0
LINE
  8
_0-0_0
  6
CONTINUOUS
 62
    7
 10
235.53447414420936
 20
195.46854904318297
 11
235.53447414420936
 21
194.46854904318297
  0
CIRCLE
  8
_0-0_0
  6
CONTINUOUS
 62
    7
 10
235.03447414420936
 20
195.96854904318297
 40
2.5
  0
LINE
  8
_0-0_0
  6
CONTINUOUS
 62
    7
 10
228.03447414420936
 20
213.01854904318299
 11
229.03447414420936
 21
213.01854904318299
  0
LINE
  8
_0-0_0
  6
CONTINUOUS
 62
    7
 10
228.03447414420936
 20
215.76854904318299
 11
228.03447414420936
 21
213.01854904318299
  0
LINE
  8
_0-0_0
  6
CONTINUOUS
 62
    7
 10
242.03447414420936
 20
213.01854904318299
 11
241.03447414420936
 21
213.01854904318299
  0
LINE
  8
_0-0_0
  6
CONTINUOUS
 62
    7
 10
242.03447414420936
 20
215.76854904318299
 11
242.03447414420936
 21
213.01854904318299
  0
LINE
  8
_0-0_0
  6
CONTINUOUS
 62
    7
 10
229.03447414420936
 20
199.27854904318298
 11
229.03447414420936
 21
192.65854904318297
  0
LINE
  8
_0-0_0
  6
CONTINUOUS
 62
    7
 10
230.53447414420936
 20
199.27854904318298
 11
230.53447414420936
 21
192.65854904318297
  0
LINE
  8
_0-0_0
  6
CONTINUOUS
 62
    7
 10
239.53447414420936
 20
199.27854904318298
 11
239.53447414420936
 21
192.65854904318297
  0
LINE
  8
_0-0_0
  6
CONTINUOUS
 62
    7
 10
241.03447414420936
 20
199.27854904318298
 11
241.03447414420936
 21
192.65854904318297
  0
LINE
  8
_0-0_0
  6
CONTINUOUS
 62
    7
 10
228.03447414420936
 20
214.51854904318299
 11
242.03447414420936
 21
214.51854904318299
  0
LINE
  8
_0-0_0
  6
CONTINUOUS
 62
    7
 10
228.03447414420936
 20
215.76854904318299
 11
242.03447414420936
 21
215.76854904318299
  0
LINE
  8
_0-0_0
  6
CONTINUOUS
 62
    7
 10
228.03447414420936
 20
178.91854904318296
 11
228.03447414420936
 21
176.16854904318296
  0
LINE
  8
_0-0_0
  6
CONTINUOUS
 62
    7
 10
242.03447414420936
 20
178.91854904318296
 11
242.03447414420936
 21
176.16854904318296
  0
CIRCLE
  8
_0-0_0
  6
CONTINUOUS
 62
    7
 10
235.03447414420936
 20
195.96854904318297
 40
0.5999999999999999
  0
CIRCLE
  8
_0-0_0
  6
CONTINUOUS
 62
    7
 10
235.03447414420936
 20
195.96854904318297
 40
0.2999999999999999
  0
LINE
  8
_0-0_0
  6
CONTINUOUS
 62
    7
 10
242.03447414420936
 20
176.16854904318296
 11
228.03447414420936
 21
176.16854904318296
  0
LINE
  8
_0-0_0
  6
CONTINUOUS
 62
    7
 10
234.53447414420936
 20
189.84854904318297
 11
234.53447414420936
 21
188.84854904318297
  0
LINE
  8
_0-0_0
  6
CONTINUOUS
 62
    7
 10
234.53447414420936
 20
188.84854904318297
 11
233.53447414420936
 21
188.84854904318297
  0
LINE
  8
_0-0_0
  6
CONTINUOUS
 62
    7
 10
233.53447414420936
 20
187.84854904318297
 11
234.53447414420936
 21
187.84854904318297
  0
LINE
  8
_0-0_0
  6
CONTINUOUS
 62
    7
 10
234.53447414420936
 20
187.84854904318297
 11
234.53447414420936
 21
186.84854904318297
  0
LINE
  8
_0-0_0
  6
CONTINUOUS
 62
    7
 10
235.53447414420936
 20
189.84854904318297
 11
235.53447414420936
 21
188.84854904318297
  0
LINE
  8
_0-0_0
  6
CONTINUOUS
 62
    7
 10
235.53447414420936
 20
188.84854904318297
 11
236.53447414420936
 21
188.84854904318297
  0
LINE
  8
_0-0_0
  6
CONTINUOUS
 62
    7
 10
236.53447414420936
 20
187.84854904318297
 11
235.53447414420936
 21
187.84854904318297
  0
LINE
  8
_0-0_0
  6
CONTINUOUS
 62
    7
 10
235.53447414420936
 20
187.84854904318297
 11
235.53447414420936
 21
186.84854904318297
  0
CIRCLE
  8
_0-0_0
  6
CONTINUOUS
 62
    7
 10
235.03447414420936
 20
188.34854904318297
 40
2.5
  0
LINE
  8
_0-0_0
  6
CONTINUOUS
 62
    7
 10
229.03447414420936
 20
191.65854904318297
 11
229.03447414420936
 21
185.03854904318297
  0
LINE
  8
_0-0_0
  6
CONTINUOUS
 62
    7
 10
230.53447414420936
 20
191.65854904318297
 11
230.53447414420936
 21
185.03854904318297
  0
LINE
  8
_0-0_0
  6
CONTINUOUS
 62
    7
 10
239.53447414420936
 20
191.65854904318297
 11
239.53447414420936
 21
185.03854904318297
  0
LINE
  8
_0-0_0
  6
CONTINUOUS
 62
    7
 10
241.03447414420936
 20
191.65854904318297
 11
241.03447414420936
 21
185.03854904318297
  0
LINE
  8
_0-0_0
  6
CONTINUOUS
 62
    7
 10
228.03447414420936
 20
191.65854904318297
 11
242.03447414420936
 21
191.65854904318297
  0
LINE
  8
_0-0_0
  6
CONTINUOUS
 62
    7
 10
228.03447414420936
 20
185.03854904318297
 11
242.03447414420936
 21
185.03854904318297
  0
LINE
  8
_0-0_0
  6
CONTINUOUS
 62
    7
 10
228.03447414420936
 20
190.15854904318297
 11
229.03447414420936
 21
190.15854904318297
  0
LINE
  8
_0-0_0
  6
CONTINUOUS
 62
    7
 10
242.03447414420936
 20
190.15854904318297
 11
241.03447414420936
 21
190.15854904318297
  0
LINE
  8
_0-0_0
  6
CONTINUOUS
 62
    7
 10
228.03447414420936
 20
186.53854904318297
 11
229.03447414420936
 21
186.53854904318297
  0
LINE
  8
_0-0_0
  6
CONTINUOUS
 62
    7
 10
242.03447414420936
 20
186.53854904318297
 11
241.03447414420936
 21
186.53854904318297
  0
LINE
  8
_0-0_0
  6
CONTINUOUS
 62
    7
 10
228.03447414420936
 20
186.53854904318297
 11
228.03447414420936
 21
182.53854904318297
  0
LINE
  8
_0-0_0
  6
CONTINUOUS
 62
    7
 10
242.03447414420936
 20
186.53854904318297
 11
242.03447414420936
 21
182.53854904318297
  0
LINE
  8
_0-0_0
  6
CONTINUOUS
 62
    7
 10
228.03447414420936
 20
201.77854904318298
 11
229.03447414420936
 21
201.77854904318298
  0
LINE
  8
_0-0_0
  6
CONTINUOUS
 62
    7
 10
228.03447414420936
 20
201.77854904318298
 11
228.03447414420936
 21
197.77854904318298
  0
LINE
  8
_0-0_0
  6
CONTINUOUS
 62
    7
 10
229.03447414420936
 20
206.89854904318298
 11
229.03447414420936
 21
200.27854904318298
  0
LINE
  8
_0-0_0
  6
CONTINUOUS
 62
    7
 10
230.53447414420936
 20
206.89854904318298
 11
230.53447414420936
 21
200.27854904318298
  0
LINE
  8
_0-0_0
  6
CONTINUOUS
 62
    7
 10
228.03447414420936
 20
197.77854904318298
 11
229.03447414420936
 21
197.77854904318298
  0
LINE
  8
_0-0_0
  6
CONTINUOUS
 62
    7
 10
242.03447414420936
 20
201.77854904318298
 11
241.03447414420936
 21
201.77854904318298
  0
LINE
  8
_0-0_0
  6
CONTINUOUS
 62
    7
 10
242.03447414420936
 20
201.77854904318298
 11
242.03447414420936
 21
197.77854904318298
  0
LINE
  8
_0-0_0
  6
CONTINUOUS
 62
    7
 10
239.53447414420936
 20
206.89854904318298
 11
239.53447414420936
 21
200.27854904318298
  0
LINE
  8
_0-0_0
  6
CONTINUOUS
 62
    7
 10
241.03447414420936
 20
206.89854904318298
 11
241.03447414420936
 21
200.27854904318298
  0
LINE
  8
_0-0_0
  6
CONTINUOUS
 62
    7
 10
242.03447414420936
 20
197.77854904318298
 11
241.03447414420936
 21
197.77854904318298
  0
LINE
  8
_0-0_0
  6
CONTINUOUS
 62
    7
 10
228.03447414420936
 20
200.27854904318298
 11
242.03447414420936
 21
200.27854904318298
  0
LINE
  8
_0-0_0
  6
CONTINUOUS
 62
    7
 10
228.03447414420936
 20
199.27854904318298
 11
242.03447414420936
 21
199.27854904318298
  0
LINE
  8
_0-0_0
  6
CONTINUOUS
 62
    7
 10
234.53447414420936
 20
205.08854904318298
 11
234.53447414420936
 21
204.08854904318298
  0
LINE
  8
_0-0_0
  6
CONTINUOUS
 62
    7
 10
234.53447414420936
 20
204.08854904318298
 11
233.53447414420936
 21
204.08854904318298
  0
LINE
  8
_0-0_0
  6
CONTINUOUS
 62
    7
 10
233.53447414420936
 20
203.08854904318298
 11
234.53447414420936
 21
203.08854904318298
  0
LINE
  8
_0-0_0
  6
CONTINUOUS
 62
    7
 10
234.53447414420936
 20
203.08854904318298
 11
234.53447414420936
 21
202.08854904318298
  0
LINE
  8
_0-0_0
  6
CONTINUOUS
 62
    7
 10
235.53447414420936
 20
205.08854904318298
 11
235.53447414420936
 21
204.08854904318298
  0
LINE
  8
_0-0_0
  6
CONTINUOUS
 62
    7
 10
235.53447414420936
 20
204.08854904318298
 11
236.53447414420936
 21
204.08854904318298
  0
LINE
  8
_0-0_0
  6
CONTINUOUS
 62
    7
 10
236.53447414420936
 20
203.08854904318298
 11
235.53447414420936
 21
203.08854904318298
  0
LINE
  8
_0-0_0
  6
CONTINUOUS
 62
    7
 10
235.53447414420936
 20
203.08854904318298
 11
235.53447414420936
 21
202.08854904318298
  0
CIRCLE
  8
_0-0_0
  6
CONTINUOUS
 62
    7
 10
235.03447414420936
 20
203.58854904318298
 40
2.5
  0
LINE
  8
_0-0_0
  6
CONTINUOUS
 62
    7
 10
228.03447414420936
 20
209.39854904318298
 11
229.03447414420936
 21
209.39854904318298
  0
LINE
  8
_0-0_0
  6
CONTINUOUS
 62
    7
 10
229.03447414420936
 20
214.51854904318299
 11
229.03447414420936
 21
207.89854904318298
  0
LINE
  8
_0-0_0
  6
CONTINUOUS
 62
    7
 10
230.53447414420936
 20
214.51854904318299
 11
230.53447414420936
 21
207.89854904318298
  0
LINE
  8
_0-0_0
  6
CONTINUOUS
 62
    7
 10
242.03447414420936
 20
209.39854904318298
 11
241.03447414420936
 21
209.39854904318298
  0
LINE
  8
_0-0_0
  6
CONTINUOUS
 62
    7
 10
239.53447414420936
 20
214.51854904318299
 11
239.53447414420936
 21
207.89854904318298
  0
LINE
  8
_0-0_0
  6
CONTINUOUS
 62
    7
 10
241.03447414420936
 20
214.51854904318299
 11
241.03447414420936
 21
207.89854904318298
  0
LINE
  8
_0-0_0
  6
CONTINUOUS
 62
    7
 10
228.03447414420936
 20
207.89854904318298
 11
242.03447414420936
 21
207.89854904318298
  0
LINE
  8
_0-0_0
  6
CONTINUOUS
 62
    7
 10
228.03447414420936
 20
206.89854904318298
 11
242.03447414420936
 21
206.89854904318298
  0
LINE
  8
_0-0_0
  6
CONTINUOUS
 62
    7
 10
234.53447414420936
 20
212.70854904318298
 11
234.53447414420936
 21
211.70854904318298
  0
LINE
  8
_0-0_0
  6
CONTINUOUS
 62
    7
 10
234.53447414420936
 20
211.70854904318298
 11
233.53447414420936
 21
211.70854904318298
  0
LINE
  8
_0-0_0
  6
CONTINUOUS
 62
    7
 10
233.53447414420936
 20
210.70854904318298
 11
234.53447414420936
 21
210.70854904318298
  0
LINE
  8
_0-0_0
  6
CONTINUOUS
 62
    7
 10
234.53447414420936
 20
210.70854904318298
 11
234.53447414420936
 21
209.70854904318298
  0
LINE
  8
_0-0_0
  6
CONTINUOUS
 62
    7
 10
235.53447414420936
 20
212.70854904318298
 11
235.53447414420936
 21
211.70854904318298
  0
LINE
  8
_0-0_0
  6
CONTINUOUS
 62
    7
 10
235.53447414420936
 20
211.70854904318298
 11
236.53447414420936
 21
211.70854904318298
  0
LINE
  8
_0-0_0
  6
CONTINUOUS
 62
    7
 10
236.53447414420936
 20
210.70854904318298
 11
235.53447414420936
 21
210.70854904318298
  0
LINE
  8
_0-0_0
  6
CONTINUOUS
 62
    7
 10
235.53447414420936
 20
210.70854904318298
 11
235.53447414420936
 21
209.70854904318298
  0
CIRCLE
  8
_0-0_0
  6
CONTINUOUS
 62
    7
 10
235.03447414420936
 20
211.20854904318298
 40
2.5
  0
LINE
  8
_0-0_0
  6
CONTINUOUS
 62
    7
 10
228.03447414420936
 20
209.39854904318298
 11
228.03447414420936
 21
205.39854904318298
  0
LINE
  8
_0-0_0
  6
CONTINUOUS
 62
    7
 10
242.03447414420936
 20
209.39854904318298
 11
242.03447414420936
 21
205.39854904318298
  0
LINE
  8
_0-0_0
  6
CONTINUOUS
 62
    7
 10
228.03447414420936
 20
205.39854904318298
 11
229.03447414420936
 21
205.39854904318298
  0
LINE
  8
_0-0_0
  6
CONTINUOUS
 62
    7
 10
242.03447414420936
 20
205.39854904318298
 11
241.03447414420936
 21
205.39854904318298
  0
INSERT
  2
-010-_G11
  8
_0-0_0
 10
69.534474144209355
 20
-44.031450956817025
 41
1
 42
1
 50
0
  0
INSERT
  2
-009-_G10
  8
_0-0_0
 10
69.534474144209355
 20
-44.031450956817025
 41
1
 42
1
 50
0
  0
INSERT
  2
-013-_G14
  8
_0-0_0
 10
69.534474144209355
 20
-44.031450956817025
 41
1
 42
1
 50
0
  0
INSERT
  2
-012-_G13
  8
_0-0_0
 10
69.534474144209355
 20
-44.031450956817025
 41
1
 42
1
 50
0
  0
INSERT
  2
-006-_G7
  8
_0-0_0
 10
69.534474144209355
 20
-44.031450956817025
 41
1
 42
1
 50
0
  0
INSERT
  2
-007-_G8
  8
_0-0_0
 10
69.534474144209355
 20
-44.031450956817025
 41
1
 42
1
 50
0
  0
ENDSEC
  0
EOF
