  0
SECTION
  2
HEADER
  9
$ACADVER
  1
AC1009
  9
$INSBASE
 10
0
 20
0
 30
0
  9
$EXTMIN
 10
0
 20
0
  9
$EXTMAX
 10
420
 20
297
  9
$LIMMIN
 10
0
 20
0
  9
$LIMMAX
 10
420
 20
297
  9
$LTSCALE
 40
1
  0
ENDSEC
  0
SECTION
  2
TABLES
  0
TABLE
  2
LTYPE
 70
     9
  0
LTYPE
  2
CONTINUOUS
 70
    64
  3
実線
 72
    65
 73
     0
 40
0.0
  0
LTYPE
  2
DASHED1
 70
    64
  3
--  --  --  --  --  --  --  --  
 72
    65
 73
     2
 40
2.5
 49
1.25
 49
-1.25
  0
LTYPE
  2
DASHED2
 70
    64
  3
----    ----    ----    ----    
 72
    65
 73
     2
 40
5.0
 49
2.5
 49
-2.5
  0
LTYPE
  2
DASHED3
 70
    64
  3
------  ------  ------  ------  
 72
    65
 73
     2
 40
5.0
 49
3.75
 49
-1.25
  0
LTYPE
  2
CENTER1
 70
    64
  3
----- - ----- - ----- - ----- - 
 72
    65
 73
     4
 40
10.0
 49
6.25
 49
-1.25
 49
1.25
 49
-1.25
  0
LTYPE
  2
CENTER2
 70
    64
  3
----------  --  ----------  --  
 72
    65
 73
     4
 40
20.0
 49
12.5
 49
-2.5
 49
2.5
 49
-2.5
  0
LTYPE
  2
PHANTOM1
 70
    64
  3
--- - - --- - - --- - - --- - - 
 72
    65
 73
     6
 40
10.0
 49
3.25
 49
-1.25
 49
1.25
 49
-1.25
 49
1.25
 49
-1.25
  0
LTYPE
  2
PHANTOM2
 70
    64
  3
--------  -  -  --------  -  -  
 72
    65
 73
     6
 40
20.0
 49
10.0
 49
-2.5
 49
1.25
 49
-2.5
 49
1.25
 49
-2.5
  0
LTYPE
  2
DOT
 70
    64
  3
-   -   -   -   -   -   -   -   
 72
    65
 73
     2
 40
2.5
 49
0.625
 49
-1.875
  0
LTYPE
  2
DUMMY
 70
    64
  3
ダミー
 72
    65
 73
     0
 40
0.0
  0
LTYPE
  2
RAND1
 70
    64
  3
ランダム線1
 72
    65
 73
     4
 40
10.0
 49
1.0
 49
-2.0
 49
3.0
 49
-4.0
  0
LTYPE
  2
RAND2
 70
    64
  3
ランダム線2
 72
    65
 73
     4
 40
14.0
 49
2.0
 49
-3.0
 49
4.0
 49
-5.0
  0
LTYPE
  2
RAND3
 70
    64
  3
ランダム線3
 72
    65
 73
     4
 40
18.0
 49
3.0
 49
-4.0
 49
5.0
 49
-6.0
  0
LTYPE
  2
RAND4
 70
    64
  3
ランダム線4
 72
    65
 73
     4
 40
22.0
 49
4.0
 49
-5.0
 49
6.0
 49
-7.0
  0
LTYPE
  2
RAND5
 70
    64
  3
ランダム線5
 72
    65
 73
     4
 40
26.0
 49
5.0
 49
-6.0
 49
7.0
 49
-8.0
  0
LTYPE
  2
LONG1
 70
    64
  3
----------  --  ----------  --  
 72
    65
 73
     4
 40
40.0
 49
32.5
 49
-2.5
 49
2.5
 49
-2.5
  0
LTYPE
  2
LONG2
 70
    64
  3
--------  -  -  --------  -  -  
 72
    65
 73
     6
 40
40.0
 49
30.0
 49
-2.5
 49
1.25
 49
-2.5
 49
1.25
 49
-2.5
  0
LTYPE
  2
LONG3
 70
    64
  3
+++++++++++++++..+++++++++++++++
 72
    65
 73
     2
 40
40.0
 49
37.5
 49
-2.5
  0
LTYPE
  2
LONG4
 70
    64
  3
+++++++++++++++..+++++++++++++++
 72
    65
 73
     2
 40
80.0
 49
75.0
 49
-5.0
  0
LTYPE
  2
LONG5
 70
    64
  3
----------  --  ----------  --  
 72
    65
 73
     4
 40
60.0
 49
37.5
 49
-7.5
 49
7.5
 49
-7.5
  0
LTYPE
  2
dashed
 70
   64
  3
-------   -------------   ------
 72
   65
 73
    2
 40
7.5
 49
6
 49
-1.5
  0
LTYPE
  2
dashed_spaced
 70
   64
  3
----        --------        ----
 72
   65
 73
    2
 40
12
 49
6
 49
-6
  0
LTYPE
  2
long_dashed_dotted
 70
   64
  3
------------- --- --------------
 72
   65
 73
    4
 40
15.25
 49
12
 49
-1.5
 49
0.25
 49
-1.5
  0
LTYPE
  2
long_dashed_double-dotted
 70
   64
  3
----------- --- --- ------------
 72
   65
 73
    6
 40
17
 49
12
 49
-1.5
 49
0.25
 49
-1.5
 49
0.25
 49
-1.5
  0
LTYPE
  2
long_dashed_triplicate-dotted
 70
   64
  3
--------- --- --- --- ----------
 72
   65
 73
    8
 40
18.75
 49
12
 49
-1.5
 49
0.25
 49
-1.5
 49
0.25
 49
-1.5
 49
0.25
 49
-1.5
  0
LTYPE
  2
dotted
 70
   64
  3
   -       -       -       -    
 72
   65
 73
    2
 40
1.75
 49
0.25
 49
-1.5
  0
LTYPE
  2
chain
 70
   64
  3
-------------- -- --------------
 72
   65
 73
    4
 40
18.5
 49
12
 49
-1.5
 49
3.5
 49
-1.5
  0
LTYPE
  2
chain_double_dash
 70
   64
  3
------------ -- -- -------------
 72
   65
 73
    6
 40
23.5
 49
12
 49
-1.5
 49
3.5
 49
-1.5
 49
3.5
 49
-1.5
  0
LTYPE
  2
dashed_dotted
 70
   64
  3
-----------     -     ----------
 72
   65
 73
    4
 40
9.25
 49
6
 49
-1.5
 49
0.25
 49
-1.5
  0
LTYPE
  2
double-dashed_dotted
 70
   64
  3
------   -----------   -   -----
 72
   65
 73
    6
 40
16.75
 49
6
 49
-1.5
 49
6
 49
-1.5
 49
0.25
 49
-1.5
  0
LTYPE
  2
dashed_double-dotted
 70
   64
  3
---------    -    -    ---------
 72
   65
 73
    6
 40
11
 49
6
 49
-1.5
 49
0.25
 49
-1.5
 49
0.25
 49
-1.5
  0
LTYPE
  2
double-dashed_double-dotted
 70
   64
  3
-----   ---------   -   -   ----
 72
   65
 73
    8
 40
18.5
 49
6
 49
-1.5
 49
6
 49
-1.5
 49
0.25
 49
-1.5
 49
0.25
 49
-1.5
  0
LTYPE
  2
dashed_triplicate-dotted
 70
   64
  3
-------    -    -    -    ------
 72
   65
 73
    8
 40
12.75
 49
6
 49
-1.5
 49
0.25
 49
-1.5
 49
0.25
 49
-1.5
 49
0.25
 49
-1.5
  0
LTYPE
  2
double-dashed_triplicate-dotted
 70
   64
  3
-----  ---------  -  -  -  -----
 72
   65
 73
   10
 40
20.25
 49
6
 49
-1.5
 49
6
 49
-1.5
 49
0.25
 49
-1.5
 49
0.25
 49
-1.5
 49
0.25
 49
-1.5
  0
LTYPE
  2
undefined
 70
   64
  3
--------------------------------
 72
   65
 73
    0
 40
0
  0
LTYPE
  2
HIDDEN
 70
   64
  3
------     -----------     -----
 72
   65
 73
    2
 40
12.600000000000001
 49
8.4000000000000004
 49
-4.2000000000000002
  0
LTYPE
  2
DOT_18
 70
   64
  3
------    ------------    ------
 72
   65
 73
    2
 40
8
 49
6
 49
-2
  0
LTYPE
  2
CENTER
 70
   64
  3
---------      --      ---------
 72
   65
 73
    4
 40
50.5
 49
30
 49
-9
 49
2.5
 49
-9
  0
LTYPE
  2
PHANTOM
 70
   64
  3
---------     -   -     --------
 72
   65
 73
    6
 40
58
 49
30
 49
-9
 49
2.5
 49
-5
 49
2.5
 49
-9
  0
LTYPE
  2
ACAD_ISO06W100
 70
   64
  3
---------   -   -   -   --------
 72
   65
 73
    8
 40
37.5
 49
24
 49
-3
 49
0.5
 49
-3
 49
0.5
 49
-3
 49
0.5
 49
-3
  0
LTYPE
  2
ACAD_ISO14W100
 70
   64
  3
-------    -    -    -    ------
 72
   65
 73
    8
 40
25.5
 49
12
 49
-3
 49
0.5
 49
-3
 49
0.5
 49
-3
 49
0.5
 49
-3
  0
ENDTAB
  0
TABLE
  2
STYLE
  5
3
100
AcDbSymbolTable
 70
     1
  0
STYLE
  5
10
100
AcDbSymbolTableRecord
100
AcDbTextStyleTableRecord
  2
STANDARD
 70
     0
 40
0.0
 41
1.0
 50
0.0
 71
     0
 42
0.2
  3
txt
  4
bigfont.shx
  0
STYLE
  5
26
100
AcDbSymbolTableRecord
100
AcDbTextStyleTableRecord
  2
TATEGAKI
 70
    68
 40
0.0
 41
1.0
 50
0.0
 71
     0
 42
1.0
  3
txt
  4
bigfont.shx
  0
ENDTAB
  0
TABLE
  2
LAYER
 70
    3
  0
LAYER
  2
_0-0_0
 70
   64
 62
    7
  6
CONTINUOUS
  0
LAYER
  2
_1-6_1031
 70
   64
 62
    7
  6
CONTINUOUS
  0
LAYER
  2
ADD_LINE
 70
   64
 62
    7
  6
CONTINUOUS
  0
ENDTAB
  0
ENDSEC
  0
SECTION
  2
BLOCKS
  0
BLOCK
  2
-000-_G0
 70
   64
 10
0
 20
0
 30
0
  0
ENDBLK
  0
BLOCK
  2
-002-_G3
 70
   64
 10
0
 20
0
 30
0
  0
LINE
  8
_1-6_1031
  6
CONTINUOUS
 62
    7
 10
114.997783
 20
68.196156000000002
 11
111.99778000000001
 21
69
  0
LINE
  8
_1-6_1031
  6
CONTINUOUS
 62
    7
 10
111.99778000000001
 20
69
 11
114.997783
 21
69.803843999999998
  0
LINE
  8
_1-6_1031
  6
CONTINUOUS
 62
    7
 10
111.99778000000001
 20
69
 11
114.997783
 21
69
  0
ENDBLK
  0
BLOCK
  2
-003-_G4
 70
   64
 10
0
 20
0
 30
0
  0
LINE
  8
_1-6_1031
  6
CONTINUOUS
 62
    7
 10
173.99777700000001
 20
69.803843999999998
 11
176.99778000000001
 21
69
  0
LINE
  8
_1-6_1031
  6
CONTINUOUS
 62
    7
 10
176.99778000000001
 20
69
 11
173.99777700000001
 21
68.196156000000002
  0
LINE
  8
_1-6_1031
  6
CONTINUOUS
 62
    7
 10
176.99778000000001
 20
69
 11
173.99777700000001
 21
69
  0
ENDBLK
  0
BLOCK
  2
-005-_G6
 70
   64
 10
0
 20
0
 30
0
  0
LINE
  8
_1-6_1031
  6
CONTINUOUS
 62
    7
 10
187.801624
 20
81.500003000000007
 11
186.99778000000001
 21
78.5
  0
LINE
  8
_1-6_1031
  6
CONTINUOUS
 62
    7
 10
186.99778000000001
 20
78.5
 11
186.19393600000001
 21
81.500003000000007
  0
LINE
  8
_1-6_1031
  6
CONTINUOUS
 62
    7
 10
186.99778000000001
 20
78.5
 11
186.99778000000001
 21
81.500003000000007
  0
ENDBLK
  0
BLOCK
  2
-006-_G7
 70
   64
 10
0
 20
0
 30
0
  0
LINE
  8
_1-6_1031
  6
CONTINUOUS
 62
    7
 10
186.19393600000001
 20
92.499996999999993
 11
186.99778000000001
 21
95.5
  0
LINE
  8
_1-6_1031
  6
CONTINUOUS
 62
    7
 10
186.99778000000001
 20
95.5
 11
187.801624
 21
92.499996999999993
  0
LINE
  8
_1-6_1031
  6
CONTINUOUS
 62
    7
 10
186.99778000000001
 20
95.5
 11
186.99778000000001
 21
92.499996999999993
  0
ENDBLK
  0
BLOCK
  2
-008-_G9
 70
   64
 10
0
 20
0
 30
0
  0
LINE
  8
_1-6_1031
  6
CONTINUOUS
 62
    7
 10
195.801624
 20
81.000003000000007
 11
194.99778000000001
 21
78
  0
LINE
  8
_1-6_1031
  6
CONTINUOUS
 62
    7
 10
194.99778000000001
 20
78
 11
194.19393600000001
 21
81.000003000000007
  0
LINE
  8
_1-6_1031
  6
CONTINUOUS
 62
    7
 10
194.99778000000001
 20
78
 11
194.99778000000001
 21
81.000003000000007
  0
ENDBLK
  0
BLOCK
  2
-009-_G10
 70
   64
 10
0
 20
0
 30
0
  0
LINE
  8
_1-6_1031
  6
CONTINUOUS
 62
    7
 10
194.19393600000001
 20
92.999996999999993
 11
194.99778000000001
 21
96
  0
LINE
  8
_1-6_1031
  6
CONTINUOUS
 62
    7
 10
194.99778000000001
 20
96
 11
195.801624
 21
92.999996999999993
  0
LINE
  8
_1-6_1031
  6
CONTINUOUS
 62
    7
 10
194.99778000000001
 20
96
 11
194.99778000000001
 21
92.999996999999993
  0
ENDBLK
  0
BLOCK
  2
-011-_G12
 70
   64
 10
0
 20
0
 30
0
  0
LINE
  8
_1-6_1031
  6
CONTINUOUS
 62
    7
 10
215.09778299999999
 20
68.196156000000002
 11
212.09778
 21
69
  0
LINE
  8
_1-6_1031
  6
CONTINUOUS
 62
    7
 10
212.09778
 20
69
 11
215.09778299999999
 21
69.803843999999998
  0
LINE
  8
_1-6_1031
  6
CONTINUOUS
 62
    7
 10
212.09778
 20
69
 11
215.09778299999999
 21
69
  0
ENDBLK
  0
BLOCK
  2
-012-_G13
 70
   64
 10
0
 20
0
 30
0
  0
LINE
  8
_1-6_1031
  6
CONTINUOUS
 62
    7
 10
200.297777
 20
69.803843999999998
 11
203.29777999999999
 21
69
  0
LINE
  8
_1-6_1031
  6
CONTINUOUS
 62
    7
 10
203.29777999999999
 20
69
 11
200.297777
 21
68.196156000000002
  0
LINE
  8
_1-6_1031
  6
CONTINUOUS
 62
    7
 10
203.29777999999999
 20
69
 11
200.297777
 21
69
  0
ENDBLK
  0
ENDSEC
  0
SECTION
  2
ENTITIES
  0
INSERT
  2
-000-_G0
  8
_0-0_0
 10
-87
 20
-61.5
 41
1
 42
1
 50
0
  0
LINE
  8
_0-0_0
  6
CONTINUOUS
 62
    7
 10
104.43496413946538
 20
26.533673987234238
 11
404.41999999999996
 21
26.533673987234238
  0
LINE
  8
_0-0_0
  6
CONTINUOUS
 62
    7
 10
104.43496413946538
 20
33.200340653900895
 11
404.41999999999996
 21
33.200340653900895
  0
LINE
  8
_0-0_0
  6
CONTINUOUS
 62
    7
 10
104.43496413946538
 20
19.867007320567552
 11
404.41999999999996
 21
19.867007320567552
  0
LINE
  8
_0-0_0
  6
CONTINUOUS
 62
    7
 10
104.43496413946538
 20
39.867007320567581
 11
104.43496413946538
 21
13.199999999999989
  0
TEXT
  8
_0-0_0
 62
    7
 10
37.838060924037819
 20
289.48418105701381
 40
3.2000000000000002
 41
1.181
 50
0
  1
Ａ
  0
TEXT
  8
_0-0_0
 62
    7
 10
87.838060924037791
 20
289.48418105701381
 40
3.2000000000000002
 41
1.181
 50
0
  1
Ｂ
  0
TEXT
  8
_0-0_0
 62
    7
 10
137.83806092403776
 20
289.48418105701381
 40
3.2000000000000002
 41
1.181
 50
0
  1
Ｃ
  0
TEXT
  8
_0-0_0
 62
    7
 10
187.83806092403776
 20
289.48418105701381
 40
3.2000000000000002
 41
1.181
 50
0
  1
Ｄ
  0
TEXT
  8
_0-0_0
 62
    7
 10
237.83806092403765
 20
289.48418105701381
 40
3.2000000000000002
 41
1.181
 50
0
  1
Ｅ
  0
TEXT
  8
_0-0_0
 62
    7
 10
287.83806092403768
 20
289.48418105701381
 40
3.2000000000000002
 41
1.181
 50
0
  1
Ｆ
  0
TEXT
  8
_0-0_0
 62
    7
 10
337.83806092403768
 20
289.48418105701381
 40
3.2000000000000002
 41
1.181
 50
0
  1
Ｇ
  0
TEXT
  8
_0-0_0
 62
    7
 10
387.83806092403768
 20
289.48418105701381
 40
3.2000000000000002
 41
1.181
 50
0
  1
Ｈ
  0
LINE
  8
_0-0_0
  6
CONTINUOUS
 62
    7
 10
64.438060924037813
 20
288.19999999999999
 11
64.438060924037813
 21
290.19999999999999
  0
LINE
  8
_0-0_0
  6
CONTINUOUS
 62
    7
 10
114.43806092403783
 20
288.19999999999999
 11
114.43806092403783
 21
290.19999999999999
  0
LINE
  8
_0-0_0
  6
CONTINUOUS
 62
    7
 10
164.43806092403781
 20
288.19999999999999
 11
164.43806092403781
 21
290.19999999999999
  0
LINE
  8
_0-0_0
  6
CONTINUOUS
 62
    7
 10
214.43806092403784
 20
288.19999999999999
 11
214.43806092403784
 21
290.19999999999999
  0
LINE
  8
_0-0_0
  6
CONTINUOUS
 62
    7
 10
264.43806092403781
 20
288.19999999999999
 11
264.43806092403781
 21
290.19999999999999
  0
LINE
  8
_0-0_0
  6
CONTINUOUS
 62
    7
 10
314.43806092403781
 20
288.19999999999999
 11
314.43806092403781
 21
290.19999999999999
  0
LINE
  8
_0-0_0
  6
CONTINUOUS
 62
    7
 10
364.43806092403781
 20
288.19999999999999
 11
364.43806092403781
 21
290.19999999999999
  0
LINE
  8
_0-0_0
  6
CONTINUOUS
 62
    7
 10
404.41999999999996
 20
13.199999999999989
 11
404.41999999999996
 21
288.19999999999999
  0
LINE
  8
_0-0_0
  6
CONTINUOUS
 62
    7
 10
12.419999999999987
 20
238.08418105701378
 11
14.419999999999987
 21
238.08418105701378
  0
LINE
  8
_0-0_0
  6
CONTINUOUS
 62
    7
 10
12.419999999999987
 20
188.08418105701378
 11
14.419999999999987
 21
188.08418105701378
  0
LINE
  8
_0-0_0
  6
CONTINUOUS
 62
    7
 10
12.419999999999987
 20
138.08418105701378
 11
14.419999999999987
 21
138.08418105701378
  0
LINE
  8
_0-0_0
  6
CONTINUOUS
 62
    7
 10
12.419999999999987
 20
88.08418105701378
 11
14.419999999999987
 21
88.08418105701378
  0
TEXT
  8
_0-0_0
 62
    7
 10
9.8199999999999932
 20
261.48418105701381
 40
3.2000000000000002
 41
1.181
 50
0
  1
１
  0
TEXT
  8
_0-0_0
 62
    7
 10
9.8199999999999932
 20
211.48418105701379
 40
3.2000000000000002
 41
1.181
 50
0
  1
２
  0
TEXT
  8
_0-0_0
 62
    7
 10
9.8199999999999932
 20
161.48418105701379
 40
3.2000000000000002
 41
1.181
 50
0
  1
３
  0
TEXT
  8
_0-0_0
 62
    7
 10
9.8199999999999932
 20
111.48418105701379
 40
3.2000000000000002
 41
1.181
 50
0
  1
４
  0
TEXT
  8
_0-0_0
 62
    7
 10
9.8199999999999932
 20
61.484181057013785
 40
3.2000000000000002
 41
1.181
 50
0
  1
５
  0
LINE
  8
_0-0_0
  6
CONTINUOUS
 62
    7
 10
14.419999999999987
 20
13.199999999999989
 11
404.41999999999996
 21
13.199999999999989
  0
LINE
  8
_0-0_0
  6
CONTINUOUS
 62
    7
 10
14.419999999999987
 20
13.199999999999989
 11
14.419999999999987
 21
288.19999999999999
  0
LINE
  8
_0-0_0
  6
CONTINUOUS
 62
    7
 10
14.419999999999987
 20
288.19999999999999
 11
404.41999999999996
 21
288.19999999999999
  0
LINE
  8
_0-0_0
  6
CONTINUOUS
 62
    7
 10
229.43806092403781
 20
39.867007320567581
 11
229.43806092403781
 21
13.199999999999989
  0
LINE
  8
_0-0_0
  6
CONTINUOUS
 62
    7
 10
264.43806092403781
 20
39.867007320567581
 11
264.43806092403781
 21
13.199999999999989
  0
LINE
  8
_0-0_0
  6
CONTINUOUS
 62
    7
 10
279.41999999999996
 20
39.867007320567581
 11
279.41999999999996
 21
13.199999999999989
  0
LINE
  8
_0-0_0
  6
CONTINUOUS
 62
    7
 10
304.41999999999996
 20
39.867007320567581
 11
304.41999999999996
 21
13.199999999999989
  0
LINE
  8
_0-0_0
  6
CONTINUOUS
 62
    7
 10
249.41999999999999
 20
39.867007320567581
 11
249.41999999999999
 21
13.199999999999989
  0
LINE
  8
_0-0_0
  6
CONTINUOUS
 62
    7
 10
114.41999999999999
 20
39.867007320567581
 11
114.41999999999999
 21
13.199999999999989
  0
LINE
  8
_0-0_0
  6
CONTINUOUS
 62
    7
 10
214.42000000000002
 20
39.867007320567581
 11
214.42000000000002
 21
13.199999999999989
  0
LINE
  8
_0-0_0
  6
CONTINUOUS
 62
    7
 10
14.419999999999987
 20
39.867007320567581
 11
404.41999999999996
 21
39.867007320567581
  0
LINE
  8
_0-0_0
  6
CONTINUOUS
 62
    7
 10
319.41999999999996
 20
19.866666666666561
 11
319.41999999999996
 21
39.867007320567581
  0
TEXT
  8
_0-0_0
 62
    7
 10
306.91999999999996
 20
35.033333333333331
 40
3
 41
1
 50
0
  1
納入先
  0
TEXT
  8
_0-0_0
 62
    7
 10
305.16999999999996
 20
28.366666666666674
 40
3
 41
1
 50
0
  1
図面番号
  0
TEXT
  8
_0-0_0
 62
    7
 10
305.16999999999996
 20
21.699999999999989
 40
3
 41
1
 50
0
  1
図面名称
  0
TEXT
  8
_0-0_0
 62
    7
 10
281.16999999999996
 20
35.033333333333331
 40
3
 41
1
 50
0
  1
尺度
  0
TEXT
  8
_0-0_0
 62
    7
 10
270.41999999999973
 20
35.033333333333331
 40
3
 41
1
 50
0
  1
１
  0
TEXT
  8
_0-0_0
 62
    7
 10
251.79499999999999
 20
35.033333333333331
 40
3
 41
1
 50
0
  1
ｼｰﾄNo.
  0
TEXT
  8
_0-0_0
 62
    7
 10
253.66999999999999
 20
28.366666666666674
 40
3
 41
1
 50
0
  1
承認
  0
TEXT
  8
_0-0_0
 62
    7
 10
253.66999999999999
 20
21.699999999999989
 40
3
 41
1
 50
0
  1
審査
  0
TEXT
  8
_0-0_0
 62
    7
 10
253.66999999999999
 20
15.033333333333303
 40
3
 41
1
 50
0
  1
製図
  0
TEXT
  8
_0-0_0
 62
    7
 10
232.67000000000004
 20
15.03333333333336
 40
3
 41
1
 50
0
  1
改定日付
  0
TEXT
  8
_0-0_0
 62
    7
 10
216.92000000000004
 20
15.033333333333303
 40
3
 41
1
 50
0
  1
改定者
  0
TEXT
  8
_0-0_0
 62
    7
 10
157.66999999999999
 20
15.03333333333336
 40
3
 41
1
 50
0
  1
改定内容
  0
TEXT
  8
_0-0_0
 62
    7
 10
105.16999999999999
 20
15.03333333333336
 40
3
 41
1
 50
0
  1
Ｎｏ.
  0
TEXT
  8
_0-0_0
 62
    7
 10
107.91999999999999
 20
21.699999999999989
 40
3
 41
1
 50
0
  1
１
  0
TEXT
  8
_0-0_0
 62
    7
 10
107.91999999999999
 20
28.366666666666674
 40
3
 41
1
 50
0
  1
２
  0
TEXT
  8
_0-0_0
 62
    7
 10
107.91999999999999
 20
35.033333333333331
 40
3
 41
1
 50
0
  1
３
  0
LINE
  8
_0-0_0
  6
CONTINUOUS
 62
    3
 10
109.42000000000067
 20
38.762168554635707
 11
106.92000000000067
 21
34.432040838570686
  0
LINE
  8
_0-0_0
  6
CONTINUOUS
 62
    3
 10
106.92000000000067
 20
34.432040838570686
 11
111.91999999999868
 21
34.432040838570686
  0
LINE
  8
_0-0_0
  6
CONTINUOUS
 62
    3
 10
111.91999999999868
 20
34.432040838570686
 11
109.42000000000067
 21
38.762168554635707
  0
LINE
  8
_0-0_0
  6
CONTINUOUS
 62
    3
 10
109.42000000000067
 20
32.262172369332689
 11
106.92000000000067
 21
27.932042745919716
  0
LINE
  8
_0-0_0
  6
CONTINUOUS
 62
    3
 10
106.92000000000067
 20
27.932042745919716
 11
111.91999999999868
 21
27.932042745919716
  0
LINE
  8
_0-0_0
  6
CONTINUOUS
 62
    3
 10
111.91999999999868
 20
27.932042745919716
 11
109.42000000000067
 21
32.262172369332689
  0
LINE
  8
_0-0_0
  6
CONTINUOUS
 62
    3
 10
109.42000000000067
 20
25.762170461983715
 11
106.92000000000067
 21
21.432042745919716
  0
LINE
  8
_0-0_0
  6
CONTINUOUS
 62
    3
 10
106.92000000000067
 20
21.432042745919716
 11
111.91999999999868
 21
21.432042745919716
  0
LINE
  8
_0-0_0
  6
CONTINUOUS
 62
    3
 10
111.91999999999868
 20
21.432042745919716
 11
109.42000000000067
 21
25.762170461983715
  0
TEXT
  8
_0-0_0
 62
    7
 10
295.18806092619786
 20
34.882305636745912
 40
3
 41
1
 50
0
  1
／
  0
TEXT
  8
_0-0_0
 62
    7
 10
289.43806092403781
 20
38.429032838784934
 40
2.5
 41
1
 50
0
  1
　
  0
TEXT
  8
_0-0_0
 62
    7
 10
289.43806092403781
 20
38.429032838784934
 40
2.5
 41
1
 50
0
  1
　
  0
TEXT
  8
_0-0_0
 62
    7
 10
299.37804564120484
 20
33.864408634822468
 40
3
 41
1
 50
0
  1
1
  0
LINE
  8
_0-0_0
  6
CONTINUOUS
 62
    7
 10
24.419999999999987
 20
43.199999999999989
 11
24.419999999999987
 21
78.199999999999989
  0
LINE
  8
_0-0_0
  6
CONTINUOUS
 62
    7
 10
44.419999999999987
 20
43.199999999999989
 11
44.419999999999987
 21
78.199999999999989
  0
LINE
  8
_0-0_0
  6
CONTINUOUS
 62
    7
 10
64.419999999999987
 20
78.199999999999989
 11
64.419999999999987
 21
43.199999999999989
  0
LINE
  8
_0-0_0
  6
CONTINUOUS
 62
    7
 10
19.419999999999987
 20
43.199999999999989
 11
109.41999999999999
 21
43.199999999999989
  0
LINE
  8
_0-0_0
  6
CONTINUOUS
 62
    7
 10
19.419999999999987
 20
48.199999999999989
 11
109.41999999999999
 21
48.199999999999989
  0
LINE
  8
_0-0_0
  6
CONTINUOUS
 62
    7
 10
19.419999999999987
 20
53.199999999999989
 11
109.41999999999999
 21
53.199999999999989
  0
LINE
  8
_0-0_0
  6
CONTINUOUS
 62
    7
 10
19.419999999999987
 20
58.199999999999989
 11
109.41999999999999
 21
58.199999999999989
  0
LINE
  8
_0-0_0
  6
CONTINUOUS
 62
    7
 10
19.419999999999987
 20
63.199999999999989
 11
109.41999999999999
 21
63.199999999999989
  0
LINE
  8
_0-0_0
  6
CONTINUOUS
 62
    7
 10
19.419999999999987
 20
68.199999999999989
 11
109.41999999999999
 21
68.199999999999989
  0
LINE
  8
_0-0_0
  6
CONTINUOUS
 62
    7
 10
19.419999999999987
 20
73.199999999999989
 11
109.41999999999999
 21
73.199999999999989
  0
LINE
  8
_0-0_0
  6
CONTINUOUS
 62
    7
 10
19.419999999999987
 20
78.199999999999989
 11
109.41999999999999
 21
78.199999999999989
  0
LINE
  8
_0-0_0
  6
CONTINUOUS
 62
    7
 10
19.419999999999987
 20
78.199999999999989
 11
19.419999999999987
 21
43.199999999999989
  0
LINE
  8
_0-0_0
  6
CONTINUOUS
 62
    7
 10
109.41999999999999
 20
78.199999999999989
 11
109.41999999999999
 21
43.199999999999989
  0
LINE
  8
_0-0_0
  6
CONTINUOUS
 62
    7
 10
69.419999999999987
 20
78.199999999999989
 11
69.419999999999987
 21
43.199999999999989
  0
TEXT
  8
_0-0_0
 62
    4
 10
21.294999999999987
 20
44.449999999999989
 40
2.5
 41
1
 50
0
  1
1
  0
TEXT
  8
_0-0_0
 62
    4
 10
21.294999999999987
 20
49.449999999999989
 40
2.5
 41
1
 50
0
  1
2
  0
TEXT
  8
_0-0_0
 62
    4
 10
21.294999999999987
 20
54.449999999999989
 40
2.5
 41
1
 50
0
  1
3
  0
TEXT
  8
_0-0_0
 62
    4
 10
21.294999999999987
 20
59.449999999999989
 40
2.5
 41
1
 50
0
  1
4
  0
TEXT
  8
_0-0_0
 62
    4
 10
21.294999999999987
 20
64.449999999999989
 40
2.5
 41
1
 50
0
  1
5
  0
TEXT
  8
_0-0_0
 62
    4
 10
21.294999999999987
 20
69.449999999999989
 40
2.5
 41
1
 50
0
  1
6
  0
TEXT
  8
_0-0_0
 62
    4
 10
21.294999999999987
 20
74.449999999999989
 40
2.5
 41
1
 50
0
  1
7
  0
TEXT
  8
_0-0_0
 62
    4
 10
66.294999999999987
 20
44.449999999999989
 40
2.5
 41
1
 50
0
  1
1
  0
TEXT
  8
_0-0_0
 62
    4
 10
66.294999999999987
 20
49.449999999999989
 40
2.5
 41
1
 50
0
  1
1
  0
LINE
  8
_0-0_0
  6
CONTINUOUS
 62
    7
 10
79.419999999999987
 20
43.199999999999989
 11
79.419999999999987
 21
78.199999999999989
  0
TEXT
  8
_0-0_0
 62
    7
 10
20.419999999999987
 20
79.199999999999989
 40
3
 41
1
 50
0
  1
主要諸元
  0
TEXT
  8
_0-0_0
 62
    7
 10
343.91999999999996
 20
15.03333333333336
 40
3
 41
1
 50
0
  1
Ｇｅｏｔｓ
  0
TEXT
  8
_0-0_0
 62
    7
 10
293.66752461725503
 20
36.372804138452125
 40
3
 41
1
 50
0
  1
1
  0
LINE
  8
_1-6_1031
  6
CONTINUOUS
 62
    7
 10
114.8
 20
184.44
 11
114.8
 21
168.44
  0
LINE
  8
_1-6_1031
  6
CONTINUOUS
 62
    7
 10
115.8
 20
177.44
 11
124.8
 21
177.44
  0
LINE
  8
_1-6_1031
  6
CONTINUOUS
 62
    7
 10
115.8
 20
183.44
 11
115.8
 21
177.44
  0
LINE
  8
_1-6_1031
  6
CONTINUOUS
 62
    7
 10
124.8
 20
177.44
 11
124.8
 21
183.44
  0
LINE
  8
_1-6_1031
  6
CONTINUOUS
 62
    7
 10
124.8
 20
175.44
 11
115.8
 21
175.44
  0
LINE
  8
_1-6_1031
  6
CONTINUOUS
 62
    7
 10
115.8
 20
175.44
 11
115.8
 21
169.44
  0
LINE
  8
_1-6_1031
  6
CONTINUOUS
 62
    7
 10
124.8
 20
169.44
 11
124.8
 21
175.44
  0
LINE
  8
_1-6_1031
  6
CONTINUOUS
 62
    7
 10
115.8
 20
169.44
 11
124.8
 21
169.44
  0
LINE
  8
_1-6_1031
  6
CONTINUOUS
 62
    7
 10
124.8
 20
183.44
 11
115.8
 21
183.44
  0
LINE
  8
_1-6_1031
  6
CONTINUOUS
 62
    7
 10
212.80000000000001
 20
184.94
 11
212.80000000000001
 21
167.94
  0
LINE
  8
_1-6_1031
  6
CONTINUOUS
 62
    7
 10
214.39999999999998
 20
184.94
 11
214.39999999999998
 21
167.94
  0
LINE
  8
_1-6_1031
  6
CONTINUOUS
 62
    7
 10
212.80000000000001
 20
184.94
 11
214.39999999999998
 21
184.94
  0
LINE
  8
_1-6_1031
  6
CONTINUOUS
 62
    7
 10
212.80000000000001
 20
167.94
 11
214.39999999999998
 21
167.94
  0
LINE
  8
_1-6_1031
  6
CONTINUOUS
 62
    7
 10
214.89999999999998
 20
184.94
 11
214.89999999999998
 21
167.94
  0
LINE
  8
_1-6_1031
  6
CONTINUOUS
 62
    7
 10
179.80000000000001
 20
184.44
 11
179.80000000000001
 21
168.44
  0
LINE
  8
_1-6_1031
  6
CONTINUOUS
 62
    7
 10
212.585331
 20
185.44
 11
214.39999999999998
 21
185.44
  0
LINE
  8
_1-6_1031
  6
CONTINUOUS
 62
    7
 10
212.585331
 20
167.44
 11
214.39999999999998
 21
167.44
  0
LINE
  8
_1-6_1031
  6
CONTINUOUS
 62
    7
 10
179.30000000000001
 20
182.69
 11
179.30000000000001
 21
170.19
  0
LINE
  8
_1-6_1031
  6
CONTINUOUS
 62
    7
 10
178.416
 20
182.69
 11
179.30000000000001
 21
182.69
  0
LINE
  8
_1-6_1031
  6
CONTINUOUS
 62
    7
 10
178.416
 20
170.19
 11
179.30000000000001
 21
170.19
  0
LINE
  8
_1-6_1031
  6
CONTINUOUS
 62
    7
 10
179.30000000000001
 20
182.69
 11
179.30000000000001
 21
170.19
  0
LINE
  8
_1-6_1031
  6
CONTINUOUS
 62
    7
 10
179.30000000000001
 20
180.53999999999999
 11
178.100235
 21
180.53999999999999
  0
LINE
  8
_1-6_1031
  6
CONTINUOUS
 62
    7
 10
179.30000000000001
 20
179.14000000000001
 11
177.94541199999998
 21
179.14000000000001
  0
LINE
  8
_1-6_1031
  6
CONTINUOUS
 62
    7
 10
179.30000000000001
 20
173.74000000000001
 11
177.94541199999998
 21
173.74000000000001
  0
LINE
  8
_1-6_1031
  6
CONTINUOUS
 62
    7
 10
179.30000000000001
 20
172.34
 11
178.100235
 21
172.34
  0
LINE
  8
_1-6_1031
  6
CONTINUOUS
 62
    7
 10
114.8
 20
184.44
 11
115.3
 21
184.94
  0
LINE
  8
_1-6_1031
  6
CONTINUOUS
 62
    7
 10
114.8
 20
168.44
 11
115.3
 21
167.94
  0
LINE
  8
_1-6_1031
  6
CONTINUOUS
 62
    7
 10
179.30000000000001
 20
184.94
 11
179.80000000000001
 21
184.44
  0
LINE
  8
_1-6_1031
  6
CONTINUOUS
 62
    7
 10
179.30000000000001
 20
167.94
 11
179.80000000000001
 21
168.44
  0
ARC
  8
_1-6_1031
  6
CONTINUOUS
 62
    7
 10
127.8
 20
184.94
 40
1
 50
180
 51
274.37104699999998
  0
ARC
  8
_1-6_1031
  6
CONTINUOUS
 62
    7
 10
127.8
 20
167.94
 40
1
 50
85.628952999999996
 51
180
  0
LINE
  8
_1-6_1031
  6
CONTINUOUS
 62
    7
 10
115.3
 20
167.94
 11
126.8
 21
167.94
  0
LINE
  8
_1-6_1031
  6
CONTINUOUS
 62
    7
 10
178.80000000000001
 20
167.94
 11
179.30000000000001
 21
167.94
  0
LINE
  8
_1-6_1031
  6
CONTINUOUS
 62
    7
 10
115.3
 20
184.94
 11
126.8
 21
184.94
  0
LINE
  8
_1-6_1031
  6
CONTINUOUS
 62
    7
 10
178.80000000000001
 20
184.94
 11
179.30000000000001
 21
184.94
  0
LINE
  8
_1-6_1031
  6
CONTINUOUS
 62
    7
 10
178.88705899999999
 20
185.44
 11
128.80000000000001
 21
185.44
  0
LINE
  8
_1-6_1031
  6
CONTINUOUS
 62
    7
 10
178.88705899999999
 20
167.44
 11
128.80000000000001
 21
167.44
  0
ARC
  8
_1-6_1031
  6
CONTINUOUS
 62
    7
 10
128.80000000000001
 20
184.44
 40
1
 50
90
 51
180
  0
ARC
  8
_1-6_1031
  6
CONTINUOUS
 62
    7
 10
128.80000000000001
 20
168.44
 40
1
 50
180
 51
270
  0
ARC
  8
_1-6_1031
  6
CONTINUOUS
 62
    7
 10
214.39999999999998
 20
167.94
 40
0.5
 50
270
 51
0
  0
ARC
  8
_1-6_1031
  6
CONTINUOUS
 62
    7
 10
214.39999999999998
 20
184.94
 40
0.5
 50
0
 51
90
  0
LINE
  8
_1-6_1031
  6
CONTINUOUS
 62
    7
 10
206.09999999999997
 20
182.83578199999999
 11
206.09999999999997
 21
170.044218
  0
LINE
  8
_1-6_1031
  6
CONTINUOUS
 62
    7
 10
206.434168
 20
183.307481
 11
212.41949899999997
 21
185.411699
  0
LINE
  8
_1-6_1031
  6
CONTINUOUS
 62
    7
 10
206.434168
 20
169.572519
 11
212.41949899999997
 21
167.468301
  0
ARC
  8
_1-6_1031
  6
CONTINUOUS
 62
    7
 10
206.59999999999997
 20
182.83578199999999
 40
0.5
 50
109.36976199999999
 51
180
  0
ARC
  8
_1-6_1031
  6
CONTINUOUS
 62
    7
 10
206.59999999999997
 20
170.044218
 40
0.5
 50
180
 51
250.63023800000002
  0
ARC
  8
_1-6_1031
  6
CONTINUOUS
 62
    7
 10
212.585331
 20
184.94
 40
0.5
 50
90
 51
109.36976199999999
  0
ARC
  8
_1-6_1031
  6
CONTINUOUS
 62
    7
 10
212.585331
 20
167.94
 40
0.5
 50
250.63023800000002
 51
270
  0
ARC
  8
_1-6_1031
  6
CONTINUOUS
 62
    7
 10
212.585331
 20
167.94
 40
0.5
 50
250.63023800000002
 51
270
  0
ARC
  8
_1-6_1031
  6
CONTINUOUS
 62
    7
 10
212.585331
 20
167.94
 40
0.5
 50
250.63023800000002
 51
270
  0
TEXT
  8
_1-6_1031
 62
    7
 10
125.05
 20
181.315
 40
3.5
 41
0.5
 50
-90
  1
A
  0
TEXT
  8
_1-6_1031
 62
    7
 10
125.05
 20
173.315
 40
3.5
 41
0.5
 50
-90
  1
C
  0
LINE
  8
_0-0_0
  6
CONTINUOUS
 62
    7
 10
114.8
 20
167.44
 11
114.8
 21
157.44
  0
LINE
  8
_0-0_0
  6
CONTINUOUS
 62
    7
 10
179.80000000000001
 20
167.44
 11
179.80000000000001
 21
157.44
  0
LINE
  8
_0-0_0
  6
CONTINUOUS
 62
    7
 10
114.8
 20
158.44
 11
179.80000000000001
 21
158.44
  0
TEXT
  8
_0-0_0
 62
    7
 10
145.89999999999998
 20
159.44
 40
3.5
 41
0.4
 50
0
  1
65
  0
LINE
  8
_0-0_0
  6
CONTINUOUS
 62
    7
 10
127.8
 20
184.44
 11
127.86231599999999
 21
184.03999999999999
  0
LINE
  8
_0-0_0
  6
CONTINUOUS
 62
    7
 10
127.86231599999999
 20
184.03999999999999
 11
128.13431600000001
 21
182.13999999999999
  0
LINE
  8
_0-0_0
  6
CONTINUOUS
 62
    7
 10
128.13431600000001
 20
182.13999999999999
 11
128.358316
 21
180.24000000000001
  0
LINE
  8
_0-0_0
  6
CONTINUOUS
 62
    7
 10
128.358316
 20
180.24000000000001
 11
128.51031599999999
 21
178.34
  0
LINE
  8
_0-0_0
  6
CONTINUOUS
 62
    7
 10
128.51031599999999
 20
178.34
 11
128.56631599999997
 21
176.44
  0
LINE
  8
_0-0_0
  6
CONTINUOUS
 62
    7
 10
128.56631599999997
 20
176.44
 11
128.51031599999999
 21
174.53999999999999
  0
LINE
  8
_0-0_0
  6
CONTINUOUS
 62
    7
 10
128.51031599999999
 20
174.53999999999999
 11
128.358316
 21
172.64000000000001
  0
LINE
  8
_0-0_0
  6
CONTINUOUS
 62
    7
 10
128.358316
 20
172.64000000000001
 11
128.13431600000001
 21
170.74000000000001
  0
LINE
  8
_0-0_0
  6
CONTINUOUS
 62
    7
 10
128.13431600000001
 20
170.74000000000001
 11
127.86231599999999
 21
168.84
  0
LINE
  8
_0-0_0
  6
CONTINUOUS
 62
    7
 10
127.86231599999999
 20
168.84
 11
127.8
 21
168.44
  0
LINE
  8
_0-0_0
  6
CONTINUOUS
 62
    7
 10
179.88705899999999
 20
167.44
 11
198.80000000000001
 21
167.44
  0
LINE
  8
_0-0_0
  6
CONTINUOUS
 62
    7
 10
179.88705899999999
 20
185.44
 11
198.80000000000001
 21
185.44
  0
LINE
  8
_0-0_0
  6
CONTINUOUS
 62
    7
 10
197.80000000000001
 20
167.44
 11
197.80000000000001
 21
185.44
  0
TEXT
  8
_0-0_0
 62
    7
 10
196.80000000000001
 20
172.24000000000001
 40
3.5
 41
0.373333
 50
90
  1
19 Max
  0
LINE
  8
_0-0_0
  6
CONTINUOUS
 62
    7
 10
180.30000000000001
 20
167.94
 11
190.80000000000001
 21
167.94
  0
LINE
  8
_0-0_0
  6
CONTINUOUS
 62
    7
 10
180.30000000000001
 20
184.94
 11
190.80000000000001
 21
184.94
  0
LINE
  8
_0-0_0
  6
CONTINUOUS
 62
    7
 10
189.80000000000001
 20
167.94
 11
189.80000000000001
 21
184.94
  0
TEXT
  8
_0-0_0
 62
    7
 10
188.80000000000001
 20
175.03999999999999
 40
3.5
 41
0.4
 50
90
  1
17
  0
LINE
  8
_0-0_0
  6
CONTINUOUS
 62
    7
 10
214.89999999999998
 20
166.94
 11
214.89999999999998
 21
157.44
  0
LINE
  8
_0-0_0
  6
CONTINUOUS
 62
    7
 10
206.09999999999997
 20
169.044218
 11
206.09999999999997
 21
157.44
  0
LINE
  8
_0-0_0
  6
CONTINUOUS
 62
    7
 10
206.09999999999997
 20
158.44
 11
214.89999999999998
 21
158.44
  0
LINE
  8
_0-0_0
  6
CONTINUOUS
 62
    7
 10
226.79777999999999
 20
158.44
 11
214.89999999999998
 21
158.44
  0
LINE
  8
_0-0_0
  6
CONTINUOUS
 62
    7
 10
201.09999999999997
 20
158.44
 11
206.09999999999997
 21
158.44
  0
TEXT
  8
_0-0_0
 62
    7
 10
218.79777999999999
 20
159.44
 40
3.5
 41
0.3679999999999999
 50
0
  1
9 Max
  0
CIRCLE
  8
_0-0_0
  6
CONTINUOUS
 62
    7
 10
209.19999999999999
 20
176.44
 40
0.5999999999999999
  0
CIRCLE
  8
_0-0_0
  6
CONTINUOUS
 62
    7
 10
209.19999999999999
 20
176.44
 40
0.2999999999999999
  0
CIRCLE
  8
_0-0_0
  6
CONTINUOUS
 62
    7
 10
212.80000000000001
 20
176.44
 40
0.5999999999999999
  0
CIRCLE
  8
_0-0_0
  6
CONTINUOUS
 62
    7
 10
212.80000000000001
 20
176.44
 40
0.2999999999999999
  0
LINE
  8
_0-0_0
  6
CONTINUOUS
 62
    7
 10
212.80000000000001
 20
182.69
 11
206.59999999999997
 21
182.69
  0
LINE
  8
_0-0_0
  6
CONTINUOUS
 62
    7
 10
207.34999999999997
 20
170.94
 11
212.05000000000001
 21
170.94
  0
LINE
  8
_0-0_0
  6
CONTINUOUS
 62
    7
 10
212.05000000000001
 20
170.94
 11
212.05000000000001
 21
181.94
  0
LINE
  8
_0-0_0
  6
CONTINUOUS
 62
    7
 10
212.05000000000001
 20
181.94
 11
207.34999999999997
 21
181.94
  0
LINE
  8
_0-0_0
  6
CONTINUOUS
 62
    7
 10
207.34999999999997
 20
181.94
 11
207.34999999999997
 21
170.94
  0
LINE
  8
_0-0_0
  6
CONTINUOUS
 62
    7
 10
208.84999999999997
 20
177.34
 11
209.55000000000001
 21
177.34
  0
LINE
  8
_0-0_0
  6
CONTINUOUS
 62
    7
 10
209.55000000000001
 20
177.34
 11
209.55000000000001
 21
178.03999999999999
  0
LINE
  8
_0-0_0
  6
CONTINUOUS
 62
    7
 10
209.55000000000001
 20
178.03999999999999
 11
208.84999999999997
 21
178.03999999999999
  0
LINE
  8
_0-0_0
  6
CONTINUOUS
 62
    7
 10
208.84999999999997
 20
178.03999999999999
 11
208.84999999999997
 21
177.34
  0
LINE
  8
_0-0_0
  6
CONTINUOUS
 62
    7
 10
208.84999999999997
 20
179.84
 11
209.55000000000001
 21
179.84
  0
LINE
  8
_0-0_0
  6
CONTINUOUS
 62
    7
 10
209.55000000000001
 20
179.84
 11
209.55000000000001
 21
180.53999999999999
  0
LINE
  8
_0-0_0
  6
CONTINUOUS
 62
    7
 10
209.55000000000001
 20
180.53999999999999
 11
208.84999999999997
 21
180.53999999999999
  0
LINE
  8
_0-0_0
  6
CONTINUOUS
 62
    7
 10
208.84999999999997
 20
180.53999999999999
 11
208.84999999999997
 21
179.84
  0
LINE
  8
_0-0_0
  6
CONTINUOUS
 62
    7
 10
208.84999999999997
 20
174.84
 11
209.55000000000001
 21
174.84
  0
LINE
  8
_0-0_0
  6
CONTINUOUS
 62
    7
 10
209.55000000000001
 20
174.84
 11
209.55000000000001
 21
175.53999999999999
  0
LINE
  8
_0-0_0
  6
CONTINUOUS
 62
    7
 10
209.55000000000001
 20
175.53999999999999
 11
208.84999999999997
 21
175.53999999999999
  0
LINE
  8
_0-0_0
  6
CONTINUOUS
 62
    7
 10
208.84999999999997
 20
175.53999999999999
 11
208.84999999999997
 21
174.84
  0
LINE
  8
_0-0_0
  6
CONTINUOUS
 62
    7
 10
208.84999999999997
 20
172.34
 11
209.55000000000001
 21
172.34
  0
LINE
  8
_0-0_0
  6
CONTINUOUS
 62
    7
 10
209.55000000000001
 20
172.34
 11
209.55000000000001
 21
173.03999999999999
  0
LINE
  8
_0-0_0
  6
CONTINUOUS
 62
    7
 10
209.55000000000001
 20
173.03999999999999
 11
208.84999999999997
 21
173.03999999999999
  0
LINE
  8
_0-0_0
  6
CONTINUOUS
 62
    7
 10
208.84999999999997
 20
173.03999999999999
 11
208.84999999999997
 21
172.34
  0
LINE
  8
_0-0_0
  6
CONTINUOUS
 62
    7
 10
206.59999999999997
 20
179.14000000000001
 11
207.34999999999997
 21
179.14000000000001
  0
LINE
  8
_0-0_0
  6
CONTINUOUS
 62
    7
 10
206.59999999999997
 20
180.53999999999999
 11
207.34999999999997
 21
180.53999999999999
  0
LINE
  8
_0-0_0
  6
CONTINUOUS
 62
    7
 10
206.59999999999997
 20
173.74000000000001
 11
207.34999999999997
 21
173.74000000000001
  0
LINE
  8
_0-0_0
  6
CONTINUOUS
 62
    7
 10
206.59999999999997
 20
172.34
 11
207.34999999999997
 21
172.34
  0
LINE
  8
_0-0_0
  6
CONTINUOUS
 62
    7
 10
208.84999999999997
 20
179.84
 11
209.55000000000001
 21
179.84
  0
LINE
  8
_0-0_0
  6
CONTINUOUS
 62
    7
 10
209.55000000000001
 20
179.84
 11
209.55000000000001
 21
180.53999999999999
  0
LINE
  8
_0-0_0
  6
CONTINUOUS
 62
    7
 10
209.55000000000001
 20
180.53999999999999
 11
208.84999999999997
 21
180.53999999999999
  0
LINE
  8
_0-0_0
  6
CONTINUOUS
 62
    7
 10
208.84999999999997
 20
180.53999999999999
 11
208.84999999999997
 21
179.84
  0
LINE
  8
_0-0_0
  6
CONTINUOUS
 62
    7
 10
206.59999999999997
 20
170.19
 11
212.80000000000001
 21
170.19
  0
LINE
  8
_0-0_0
  6
CONTINUOUS
 62
    7
 10
212.80000000000001
 20
170.19
 11
212.80000000000001
 21
182.69
  0
LINE
  8
_0-0_0
  6
CONTINUOUS
 62
    7
 10
206.59999999999997
 20
182.69
 11
206.59999999999997
 21
170.19
  0
LINE
  8
_0-0_0
  6
CONTINUOUS
 62
    7
 10
178.88705899999999
 20
185.44
 11
178.50400000000002
 21
183.24000000000001
  0
LINE
  8
_0-0_0
  6
CONTINUOUS
 62
    7
 10
178.50400000000002
 20
183.24000000000001
 11
178.232
 21
181.53999999999999
  0
LINE
  8
_0-0_0
  6
CONTINUOUS
 62
    7
 10
178.232
 20
181.53999999999999
 11
178.00800000000001
 21
179.84
  0
LINE
  8
_0-0_0
  6
CONTINUOUS
 62
    7
 10
178.00800000000001
 20
179.84
 11
177.85599999999999
 21
178.14000000000001
  0
LINE
  8
_0-0_0
  6
CONTINUOUS
 62
    7
 10
177.85599999999999
 20
178.14000000000001
 11
177.80000000000001
 21
176.44
  0
LINE
  8
_0-0_0
  6
CONTINUOUS
 62
    7
 10
177.80000000000001
 20
176.44
 11
177.85599999999999
 21
174.74000000000001
  0
LINE
  8
_0-0_0
  6
CONTINUOUS
 62
    7
 10
177.85599999999999
 20
174.74000000000001
 11
178.00800000000001
 21
173.03999999999999
  0
LINE
  8
_0-0_0
  6
CONTINUOUS
 62
    7
 10
178.00800000000001
 20
173.03999999999999
 11
178.232
 21
171.34
  0
LINE
  8
_0-0_0
  6
CONTINUOUS
 62
    7
 10
178.232
 20
171.34
 11
178.50400000000002
 21
169.64000000000001
  0
LINE
  8
_0-0_0
  6
CONTINUOUS
 62
    7
 10
178.50400000000002
 20
169.64000000000001
 11
178.88705899999999
 21
167.44
  0
LINE
  8
_0-0_0
  6
CENTER1
 62
    9
 10
189.56277006545477
 20
176.38204183943839
 11
190.03365485167291
 21
176.36898872969925
  0
LINE
  8
_0-0_0
  6
CONTINUOUS
 62
    7
 10
214.67500000000001
 20
130.55000000000001
 11
214.67500000000001
 21
141.05000000000001
  0
LINE
  8
_0-0_0
  6
CONTINUOUS
 62
    7
 10
206.92500000000001
 20
141.05000000000001
 11
206.92500000000001
 21
130.55000000000001
  0
LINE
  8
_0-0_0
  6
CONTINUOUS
 62
    7
 10
214.67500000000001
 20
129.65000000000001
 11
213.67500000000001
 21
129.65000000000001
  0
LINE
  8
_0-0_0
  6
CONTINUOUS
 62
    7
 10
213.67500000000001
 20
141.94999999999999
 11
214.67500000000001
 21
141.94999999999999
  0
LINE
  8
_0-0_0
  6
CONTINUOUS
 62
    7
 10
214.67500000000001
 20
141.94999999999999
 11
214.67500000000001
 21
129.65000000000001
  0
LINE
  8
_0-0_0
  6
CONTINUOUS
 62
    7
 10
208.768
 20
139.864
 11
209.81388964741126
 21
140.16254849599511
  0
LINE
  8
_0-0_0
  6
CONTINUOUS
 62
    7
 10
209.81388964741126
 20
140.16254849599511
 11
210.71695432197782
 21
140.16254849599511
  0
LINE
  8
_0-0_0
  6
CONTINUOUS
 62
    7
 10
210.71695432197782
 20
140.16025707679367
 11
211.01312025376362
 21
140.00512254109637
  0
LINE
  8
_0-0_0
  6
CONTINUOUS
 62
    7
 10
211.01312025376362
 20
140.00512254109637
 11
214.67500000000001
 21
139.65724396520389
  0
LINE
  8
_0-0_0
  6
CONTINUOUS
 62
    7
 10
208.768
 20
139.15600000000001
 11
208.80861130918061
 21
139.15600000000001
  0
LINE
  8
_0-0_0
  6
CONTINUOUS
 62
    7
 10
208.768
 20
139.15600000000001
 11
208.768
 21
139.864
  0
LINE
  8
_0-0_0
  6
CONTINUOUS
 62
    7
 10
208.80861130918061
 20
139.15600000000001
 11
213.67500000000001
 21
139.15600000000001
  0
LINE
  8
_0-0_0
  6
CONTINUOUS
 62
    7
 10
207.92500000000001
 20
141.05000000000001
 11
207.92500000000001
 21
130.55000000000001
  0
LINE
  8
_0-0_0
  6
CONTINUOUS
 62
    7
 10
208.768
 20
131.73599999999999
 11
209.81388964741126
 21
131.43745150400488
  0
LINE
  8
_0-0_0
  6
CONTINUOUS
 62
    7
 10
209.81388964741126
 20
131.43745150400488
 11
210.71695432197782
 21
131.43745150400488
  0
LINE
  8
_0-0_0
  6
CONTINUOUS
 62
    7
 10
210.71695432197782
 20
131.43974292320632
 11
211.01312025376362
 21
131.59487745890365
  0
LINE
  8
_0-0_0
  6
CONTINUOUS
 62
    7
 10
208.768
 20
132.44400000000002
 11
208.80861130918061
 21
132.44400000000002
  0
LINE
  8
_0-0_0
  6
CONTINUOUS
 62
    7
 10
208.768
 20
132.44400000000002
 11
208.768
 21
131.73599999999999
  0
LINE
  8
_0-0_0
  6
CONTINUOUS
 62
    7
 10
208.80861130918061
 20
132.44400000000002
 11
213.67500000000001
 21
132.44400000000002
  0
LINE
  8
_0-0_0
  6
CONTINUOUS
 62
    7
 10
211.01312025376362
 20
131.59487745890365
 11
214.67500000000001
 21
131.9427560347961
  0
LINE
  8
_0-0_0
  6
CONTINUOUS
 62
    7
 10
213.67500000000001
 20
132.44400000000002
 11
213.67500000000001
 21
139.15600000000001
  0
LINE
  8
_0-0_0
  6
CONTINUOUS
 62
    7
 10
213.67500000000001
 20
141.05000000000001
 11
206.92500000000001
 21
141.05000000000001
  0
LINE
  8
_0-0_0
  6
CONTINUOUS
 62
    7
 10
213.67500000000001
 20
141.94999999999999
 11
213.67500000000001
 21
141.05000000000001
  0
LINE
  8
_0-0_0
  6
CONTINUOUS
 62
    7
 10
213.67500000000001
 20
130.55000000000001
 11
206.92500000000001
 21
130.55000000000001
  0
LINE
  8
_0-0_0
  6
CONTINUOUS
 62
    7
 10
213.67500000000001
 20
129.65000000000001
 11
213.67500000000001
 21
130.55000000000001
  0
LINE
  8
_0-0_0
  6
CONTINUOUS
 62
    7
 10
264.67500000000001
 20
138.80000000000001
 11
264.67500000000001
 21
140.30000000000001
  0
LINE
  8
_0-0_0
  6
CONTINUOUS
 62
    7
 10
214.67500000000001
 20
140.30000000000001
 11
214.67500000000001
 21
138.80000000000001
  0
LINE
  8
_0-0_0
  6
CONTINUOUS
 62
    7
 10
264.67500000000001
 20
136.30000000000001
 11
264.67500000000001
 21
137.80000000000001
  0
LINE
  8
_0-0_0
  6
CONTINUOUS
 62
    7
 10
214.67500000000001
 20
137.80000000000001
 11
214.67500000000001
 21
136.30000000000001
  0
LINE
  8
_0-0_0
  6
CONTINUOUS
 62
    7
 10
264.67500000000001
 20
133.80000000000001
 11
264.67500000000001
 21
135.30000000000001
  0
LINE
  8
_0-0_0
  6
CONTINUOUS
 62
    7
 10
214.67500000000001
 20
135.30000000000001
 11
214.67500000000001
 21
133.80000000000001
  0
LINE
  8
_0-0_0
  6
CONTINUOUS
 62
    7
 10
264.67500000000001
 20
131.30000000000001
 11
264.67500000000001
 21
132.80000000000001
  0
LINE
  8
_0-0_0
  6
CONTINUOUS
 62
    7
 10
214.67500000000001
 20
132.80000000000001
 11
214.67500000000001
 21
131.30000000000001
  0
ARC
  8
_0-0_0
  6
CONTINUOUS
 62
    7
 10
239.41647832413022
 20
139.92500000000001
 40
0.4144509607755932
 50
115.20209130285497
 51
244.797908697145
  0
ARC
  8
_0-0_0
  6
CONTINUOUS
 62
    7
 10
239.41647832413022
 20
139.17500000000001
 40
0.4144509607755932
 50
115.20209130285497
 51
244.797908697145
  0
ARC
  8
_0-0_0
  6
CONTINUOUS
 62
    7
 10
239.06352167586977
 20
139.17500000000001
 40
0.4144509607755932
 50
295.20209130285502
 51
64.797908697145033
  0
ARC
  8
_0-0_0
  6
CONTINUOUS
 62
    7
 10
238.41647832413022
 20
139.17500000000001
 40
0.4144509607755932
 50
115.20209130285502
 51
244.79790869714503
  0
ARC
  8
_0-0_0
  6
CONTINUOUS
 62
    7
 10
238.41647832413022
 20
139.92500000000001
 40
0.4144509607755932
 50
115.20209130285502
 51
244.79790869714503
  0
ARC
  8
_0-0_0
  6
CONTINUOUS
 62
    7
 10
238.06352167586977
 20
139.92500000000001
 40
0.4144509607755932
 50
295.20209130285497
 51
64.797908697144976
  0
LINE
  8
_0-0_0
  6
CONTINUOUS
 62
    7
 10
264.67500000000001
 20
140.30000000000001
 11
239.24000000000001
 21
140.30000000000001
  0
LINE
  8
_0-0_0
  6
CONTINUOUS
 62
    7
 10
238.24000000000001
 20
140.30000000000001
 11
214.67500000000001
 21
140.30000000000001
  0
LINE
  8
_0-0_0
  6
CONTINUOUS
 62
    7
 10
214.67500000000001
 20
138.80000000000001
 11
238.24000000000001
 21
138.80000000000001
  0
LINE
  8
_0-0_0
  6
CONTINUOUS
 62
    7
 10
239.24000000000001
 20
138.80000000000001
 11
264.67500000000001
 21
138.80000000000001
  0
ARC
  8
_0-0_0
  6
CONTINUOUS
 62
    7
 10
239.41647832413022
 20
137.42500000000001
 40
0.4144509607755932
 50
115.20209130285497
 51
244.797908697145
  0
ARC
  8
_0-0_0
  6
CONTINUOUS
 62
    7
 10
239.41647832413022
 20
136.67500000000001
 40
0.4144509607755932
 50
115.20209130285497
 51
244.797908697145
  0
ARC
  8
_0-0_0
  6
CONTINUOUS
 62
    7
 10
239.06352167586977
 20
136.67500000000001
 40
0.4144509607755932
 50
295.20209130285502
 51
64.797908697145033
  0
ARC
  8
_0-0_0
  6
CONTINUOUS
 62
    7
 10
238.41647832413022
 20
136.67500000000001
 40
0.4144509607755932
 50
115.20209130285502
 51
244.79790869714503
  0
ARC
  8
_0-0_0
  6
CONTINUOUS
 62
    7
 10
238.41647832413022
 20
137.42500000000001
 40
0.4144509607755932
 50
115.20209130285502
 51
244.79790869714503
  0
ARC
  8
_0-0_0
  6
CONTINUOUS
 62
    7
 10
238.06352167586977
 20
137.42500000000001
 40
0.4144509607755932
 50
295.20209130285497
 51
64.797908697144976
  0
LINE
  8
_0-0_0
  6
CONTINUOUS
 62
    7
 10
264.67500000000001
 20
137.80000000000001
 11
239.24000000000001
 21
137.80000000000001
  0
LINE
  8
_0-0_0
  6
CONTINUOUS
 62
    7
 10
238.24000000000001
 20
137.80000000000001
 11
214.67500000000001
 21
137.80000000000001
  0
LINE
  8
_0-0_0
  6
CONTINUOUS
 62
    7
 10
214.67500000000001
 20
136.30000000000001
 11
238.24000000000001
 21
136.30000000000001
  0
LINE
  8
_0-0_0
  6
CONTINUOUS
 62
    7
 10
239.24000000000001
 20
136.30000000000001
 11
264.67500000000001
 21
136.30000000000001
  0
ARC
  8
_0-0_0
  6
CONTINUOUS
 62
    7
 10
239.41647832413022
 20
134.92500000000001
 40
0.4144509607755932
 50
115.20209130285497
 51
244.797908697145
  0
ARC
  8
_0-0_0
  6
CONTINUOUS
 62
    7
 10
239.41647832413022
 20
134.17500000000001
 40
0.4144509607755932
 50
115.20209130285497
 51
244.797908697145
  0
ARC
  8
_0-0_0
  6
CONTINUOUS
 62
    7
 10
239.06352167586977
 20
134.17500000000001
 40
0.4144509607755932
 50
295.20209130285502
 51
64.797908697145033
  0
ARC
  8
_0-0_0
  6
CONTINUOUS
 62
    7
 10
238.41647832413022
 20
134.17500000000001
 40
0.4144509607755932
 50
115.20209130285502
 51
244.79790869714503
  0
ARC
  8
_0-0_0
  6
CONTINUOUS
 62
    7
 10
238.41647832413022
 20
134.92500000000001
 40
0.4144509607755932
 50
115.20209130285502
 51
244.79790869714503
  0
ARC
  8
_0-0_0
  6
CONTINUOUS
 62
    7
 10
238.06352167586977
 20
134.92500000000001
 40
0.4144509607755932
 50
295.20209130285497
 51
64.797908697144976
  0
LINE
  8
_0-0_0
  6
CONTINUOUS
 62
    7
 10
264.67500000000001
 20
135.30000000000001
 11
239.24000000000001
 21
135.30000000000001
  0
LINE
  8
_0-0_0
  6
CONTINUOUS
 62
    7
 10
238.24000000000001
 20
135.30000000000001
 11
214.67500000000001
 21
135.30000000000001
  0
LINE
  8
_0-0_0
  6
CONTINUOUS
 62
    7
 10
214.67500000000001
 20
133.80000000000001
 11
238.24000000000001
 21
133.80000000000001
  0
LINE
  8
_0-0_0
  6
CONTINUOUS
 62
    7
 10
239.24000000000001
 20
133.80000000000001
 11
264.67500000000001
 21
133.80000000000001
  0
ARC
  8
_0-0_0
  6
CONTINUOUS
 62
    7
 10
239.41647832413022
 20
132.42500000000001
 40
0.4144509607755932
 50
115.20209130285497
 51
244.797908697145
  0
ARC
  8
_0-0_0
  6
CONTINUOUS
 62
    7
 10
239.41647832413022
 20
131.67500000000001
 40
0.4144509607755932
 50
115.20209130285497
 51
244.797908697145
  0
ARC
  8
_0-0_0
  6
CONTINUOUS
 62
    7
 10
239.06352167586977
 20
131.67500000000001
 40
0.4144509607755932
 50
295.20209130285502
 51
64.797908697145033
  0
ARC
  8
_0-0_0
  6
CONTINUOUS
 62
    7
 10
238.41647832413022
 20
131.67500000000001
 40
0.4144509607755932
 50
115.20209130285502
 51
244.79790869714503
  0
ARC
  8
_0-0_0
  6
CONTINUOUS
 62
    7
 10
238.41647832413022
 20
132.42500000000001
 40
0.4144509607755932
 50
115.20209130285502
 51
244.79790869714503
  0
ARC
  8
_0-0_0
  6
CONTINUOUS
 62
    7
 10
238.06352167586977
 20
132.42500000000001
 40
0.4144509607755932
 50
295.20209130285497
 51
64.797908697144976
  0
LINE
  8
_0-0_0
  6
CONTINUOUS
 62
    7
 10
264.67500000000001
 20
132.80000000000001
 11
239.24000000000001
 21
132.80000000000001
  0
LINE
  8
_0-0_0
  6
CONTINUOUS
 62
    7
 10
238.24000000000001
 20
132.80000000000001
 11
214.67500000000001
 21
132.80000000000001
  0
LINE
  8
_0-0_0
  6
CONTINUOUS
 62
    7
 10
214.67500000000001
 20
131.30000000000001
 11
238.24000000000001
 21
131.30000000000001
  0
LINE
  8
_0-0_0
  6
CONTINUOUS
 62
    7
 10
239.24000000000001
 20
131.30000000000001
 11
264.67500000000001
 21
131.30000000000001
  0
TEXT
  8
_0-0_0
 62
    4
 10
266.17200000000003
 20
133.55000000000001
 40
2
 41
1
 50
0
  1
２：電源＋１２Ｖ出力（赤　Ｒｅｄ）
  0
TEXT
  8
_0-0_0
 62
    4
 10
266.17200000000003
 20
136.05000000000001
 40
2
 41
1
 50
0
  1
３：信号ＧＮＤ　　　（緑　Ｇｒｅｅｎ）
  0
TEXT
  8
_0-0_0
 62
    4
 10
266.17200000000003
 20
138.55000000000001
 40
2
 41
1
 50
0
  1
４：信号出力　　　　（白　Ｗｈｉｔｅ）
  0
TEXT
  8
_0-0_0
 62
    4
 10
266.17200000000003
 20
131.05000000000001
 40
2
 41
1
 50
0
  1
１：電源ＧＮＤ　　　（黒　Ｂｌａｃｋ）
  0
LINE
  8
_0-0_0
  6
CONTINUOUS
 62
    4
 10
206.92500000000001
 20
123.09999999999999
 11
264.64800000000002
 21
123.09999999999999
  0
POINT
  8
_0-0_0
 62
    6
 10
206.92500000000001
 20
123.09999999999999
  0
POINT
  8
_0-0_0
 62
    6
 10
264.64800000000002
 20
123.09999999999999
  0
LINE
  8
_0-0_0
  6
CONTINUOUS
 62
    4
 10
206.92500000000001
 20
123.09999999999999
 11
206.92500000000001
 21
127.55
  0
LINE
  8
_0-0_0
  6
CONTINUOUS
 62
    4
 10
264.64800000000002
 20
123.09999999999999
 11
264.64800000000002
 21
128.22800000000001
  0
TEXT
  8
_0-0_0
 62
    4
 10
232.66149999999999
 20
123.59999999999999
 40
2.5
 41
1
 50
0
  1
700
  0
TEXT
  8
_0-0_0
 62
    4
 10
266.68000000000001
 20
142.16999999999999
 40
2.5
 41
1
 50
0
  1
コネクタ信号割当
  0
TEXT
  8
_0-0_0
 62
    4
 10
231.24000000000001
 20
147.25
 40
2.5
 41
1
 50
0
  1
付属ケーブル
  0
INSERT
  2
-002-_G3
  8
_0-0_0
 10
2.8022199999999771
 20
89.439999999999998
 41
1
 42
1
 50
0
  0
INSERT
  2
-003-_G4
  8
_0-0_0
 10
2.8022199999999771
 20
89.439999999999998
 41
1
 42
1
 50
0
  0
INSERT
  2
-012-_G13
  8
_0-0_0
 10
2.8022199999999771
 20
89.439999999999998
 41
1
 42
1
 50
0
  0
INSERT
  2
-011-_G12
  8
_0-0_0
 10
2.8022199999999771
 20
89.439999999999998
 41
1
 42
1
 50
0
  0
INSERT
  2
-006-_G7
  8
_0-0_0
 10
2.8022199999999771
 20
89.439999999999998
 41
1
 42
1
 50
0
  0
INSERT
  2
-009-_G10
  8
_0-0_0
 10
2.8022199999999771
 20
89.439999999999998
 41
1
 42
1
 50
0
  0
INSERT
  2
-005-_G6
  8
_0-0_0
 10
2.8022199999999771
 20
89.439999999999998
 41
1
 42
1
 50
0
  0
INSERT
  2
-008-_G9
  8
_0-0_0
 10
2.8022199999999771
 20
89.439999999999998
 41
1
 42
1
 50
0
  0
TEXT
  8
_0-0_0
 62
    7
 10
336.42000000000002
 20
21.699999999999989
 40
3
 41
1
 50
0
  1
ひずみゲージアンプ　ＳＴＡ－１２Ｌ
  0
TEXT
  8
_0-0_0
 62
    7
 10
25.419999999999987
 20
44.449999999999989
 40
2.5
 41
0.4799999999999999
 50
0
  1
ひずみゲージアンプ
  0
TEXT
  8
_0-0_0
 62
    4
 10
45.419999999999987
 20
44.449999999999989
 40
2.5
 41
1
 50
0
  1
STA-12L
  0
TEXT
  8
_0-0_0
 62
    4
 10
25.419999999999987
 20
49.449999999999989
 40
2.5
 41
1
 50
0
  1
ｺﾈｸﾀ
  0
TEXT
  8
_0-0_0
 62
    4
 10
45.419999999999987
 20
49.449999999999989
 40
2.5
 41
1
 50
0
  1
XHP-4
  0
TEXT
  8
_0-0_0
 62
    4
 10
70.419999999999987
 20
49.449999999999989
 40
2.5
 41
1
 50
0
  1
JST
  0
TEXT
  8
_0-0_0
 62
    4
 10
25.419999999999987
 20
54.449999999999989
 40
2.5
 41
1
 50
0
  1
電線
  0
TEXT
  8
_0-0_0
 62
    4
 10
45.419999999999987
 20
54.449999999999989
 40
2.5
 41
1
 50
0
  1
UL1007 AWG22
  0
TEXT
  8
_0-0_0
 62
    4
 10
66.294999999999987
 20
54.449999999999989
 40
2.5
 41
1
 50
0
  1
4
  0
CIRCLE
  8
_0-0_0
  6
CONTINUOUS
 62
    7
 10
182.06
 20
199.30000000000001
 40
4
  0
TEXT
  8
_0-0_0
 62
    7
 10
181.31
 20
197.80000000000001
 40
3
 41
1
 50
0
  1
1
  0
CIRCLE
  8
_0-0_0
  6
CONTINUOUS
 62
    7
 10
217.62
 20
151.03999999999999
 40
4
  0
CIRCLE
  8
_0-0_0
  6
CONTINUOUS
 62
    7
 10
260.80000000000001
 20
151.03999999999999
 40
4
  0
TEXT
  8
_0-0_0
 62
    7
 10
216.87
 20
149.53999999999999
 40
3
 41
1
 50
0
  1
2
  0
TEXT
  8
_0-0_0
 62
    7
 10
260.05000000000001
 20
149.53999999999999
 40
3
 41
1
 50
0
  1
3
  0
LINE
  8
_0-0_0
  6
CONTINUOUS
 62
    4
 10
166.81999999999999
 20
184.06
 11
168.31999999999999
 21
186.65807621135332
  0
LINE
  8
_0-0_0
  6
CONTINUOUS
 62
    4
 10
166.81999999999999
 20
184.06
 11
169.41807621135331
 21
185.56
  0
LINE
  8
_0-0_0
  6
CONTINUOUS
 62
    4
 10
208.22200000000001
 20
141.13400000000001
 11
209.72200000000001
 21
143.73207621135333
  0
LINE
  8
_0-0_0
  6
CONTINUOUS
 62
    4
 10
208.22200000000001
 20
141.13400000000001
 11
210.82007621135332
 21
142.63400000000001
  0
LINE
  8
_0-0_0
  6
CONTINUOUS
 62
    4
 10
249.37
 20
140.11799999999999
 11
250.87
 21
142.71607621135331
  0
LINE
  8
_0-0_0
  6
CONTINUOUS
 62
    4
 10
249.37
 20
140.11799999999999
 11
251.96807621135332
 21
141.61799999999999
  0
LINE
  8
_0-0_0
  6
CONTINUOUS
 62
    4
 10
257.75200000000001
 20
148.5
 11
249.37
 21
140.11799999999999
  0
LINE
  8
_0-0_0
  6
CONTINUOUS
 62
    4
 10
215.08000000000001
 20
147.99199999999999
 11
208.22200000000001
 21
141.13400000000001
  0
LINE
  8
_0-0_0
  6
CONTINUOUS
 62
    4
 10
179.23157287525382
 20
196.4715728752538
 11
166.81999999999999
 21
184.06
  0
ENDSEC
  0
EOF
